» » »

Magnet Tabs (ver.1)

Artists:  A B C D E F G H I J K L M N O P Q R S T U V W X Y Z # 

Magnet Tabs (ver.1)

Supernaturals
Rating:
0/5 (0 votes)

Hard to play? Try these video lessons and learn fast.
                'Magnet' (McColl)
By The Supernaturals
This song is easy to play, and is quite slow


VERSE:
E-----3-------3-------3-------3-------3-------3-------3-------3---
b-------3-------3-------3-------3-------3-------3-------3-------3-
g---0-------0-------0-------0-------0-------0-------0-------0-----
d-----------------0-----------------------------------------------
a-0-------------------------------0---------------0---------------
e---------3---------------3---------------3---------------3-------

CHORUS:              OUTRO:
E--------- Repeat    -3-5--8--7--3--
b--------- each      -3-5--8--7--3--
g-----0--- chord     ---------------
d--5--5--- 16        ---------------
a--5--5--- times     ---------------
e--3------ fast      ---------------



That's it. If you need them, Lyrics (as well as more information about
the band) can be found on the Original Supernaturals Fan-page:
Let Me Know if you disagree with any of this, or if you have figured out
any other songs by the band... (email address changes, so check to site
above for current contact details).
Hope you enjoy the song, lets get more Supernaturals on the net!
            
Hard to play? Try these video lessons and learn fast. | Correct




comments powered by Disqus
↑ Back to top | Tablatures and chords are parodies/interpretations of the original songs. You may use it for private study, scholarship, research or language learning purposes only