» » »

Lazy Lover Tabs (ver.1)

Artists:  A B C D E F G H I J K L M N O P Q R S T U V W X Y Z # 

Lazy Lover Tabs (ver.1)

Supernaturals
Rating:
0/5 (0 votes)

Hard to play? Try these video lessons and learn fast.
                --------------EB5C33026B82177F32264D02
Content-Transfer-Encoding: 7bit

'Lazy Lover'(McColl)
By The Supernaturals

There are several different versions to this song (electric guitar,
acoustic guitar, piano, and combinations of all three.)

INTRO (guitar plays this, and piano plays verse):
E:--5-5-5--s3---      --0---
b:--5-5-5--s3---  x3  --1---
g:--6-6-6--s4---      --0---
d:----------5---  x3  --2---
a:--------------      --3---
e:--------------      ------

VERSE (guitar and piano):
E:--0----0----0----0----0----0----0----0----
b:--1----1----1----1----1----1----1----1----
g:--0----0----2----2----0----0----2----2----
d:-----2----2----2----2----2----2----2----2-
a:-----3----3----3----3----3----3----3----3-
e:------------------------------------------


PRE-CHORUS (piano only):
  D      A      C       G
            D         A     C

CHORUS (g+p):
(Same chords/rhythm as the verse)


That's it. If you need them, complete lyrics for the verses can be found
on the Original Supernaturals Fan-page:
Let Me Know if you disagree with any of this, or if you have figured out
any other songs by the band... (email address changes, so check to site
above for current contact details)
            
Hard to play? Try these video lessons and learn fast. | Correct




comments powered by Disqus
↑ Back to top | Tablatures and chords are parodies/interpretations of the original songs. You may use it for private study, scholarship, research or language learning purposes only