» » »

Tv Brain Tabs (ver.1)

Artists:  A B C D E F G H I J K L M N O P Q R S T U V W X Y Z # 

Tv Brain Tabs (ver.1)

Superman Is Dead
Rating:
0/5 (0 votes)

Hard to play? Try these video lessons and learn fast.
                Song 		: Tv Brain
Artist 	: Superman Is Dead
Album 	: The Hangover Decade

    
e|------------------------------------------------------|
B|------------------------------------------------------|
G|------9---------7---------5---------7---------7-------| 2x
D|----9---9-----7---7-----5---5-----7---7-----7---7-----|
A|--7-------7-5-------5-3-------3-5-------5-5-------5---|
E|------------------------------------------------------|

	  E5	   C5	      D5	 D5	      E5       C5
e|---------------7------------5----------5---------------------5------|
B|----5---5~---5---8~---5-8-5----8--7-8-----8--7-8-7--5--5-8-5---8~---|
G|--7---7-------------------------------------------------------------|  
D|--------------------------------------------------------------------|
A|--------------------------------------------------------------------|
E|--------------------------------------------------------------------|

    B5C5B5C5B5C5B5C5B5  C5 C5D5 C5D5 C5D5 C5D5 C5  D5
e|-----------------------------------------------------|
B|--7-8-7-8-7-8-7-8-7-7-8--8-10-8-10-8-10-8-10-8-8-10--|
G|-----------------------------------------------------|  2x
D|-----------------------------------------------------|
A|-----------------------------------------------------|
E|-----------------------------------------------------|


Intro:
E5 G5 A5 E5 G5 A5 E5 G5 A5 F5 E5
E5 G5 A5 E5 G5 A5 E5 G5 A5
E5 G5 A5 E5 G5 A5 E5 G5 A5 F5 E5
E5 G5 A5 E5 G5 A5 E5 G5 A5

E5						 G5 A5 E5 
They never know how much i like the colour black
						 G5 F#5 E5
They never know how much i spent for the cocaine
				   		      G5 A5 E5
But now i’m sure they sell the pain just for the game
			   G5
Unless you fool me in the way Of this goddamn world! 

E5		   G5
I will walk again, I will speak in vain
D5			A5   
When there’s nothing stand against my revenge
E5			G5
Good enough to blame, When everyone’s insane
D5			A5
So i can sneak in the back of your mind

*
E5		G5
Constitution fall I reach up the sky,
D5		A5
I follow the lust, End up like a winner
E5   G5             D5
Television brain inside

**
E5   D5
Go away... The telivision brain
     E5      D5
I’ll walk away..... Just one step closer to the 
E5    D5
Castaway....... I’ve watched the TV show 
    E5	     D5
Now i feel blind..... The news is on i just

***
B5			C5
I fell numb inside me, I feel hate just surround me
B5			c5		    D5
God i do not want this thing I could never change !

Back to Intro

E5						  G5 A5 E5
They never know How much i like My favorite bands
					      G5 F#5 E5
But magazine they just turns Everyting so bad
						    G5 A5 E5
It’s time for me to watch You guys get f**king burn 
			G5
We’re gonna blow your mind Just like the atom bomb !

E5			G5
I’ll get up again, I will kick and shout
D5			A5
And there’s nothing stand Against my revenge
E5			G5
It’s so easy to blame, When everyone’s insane
D5			A5
I sneak in to the back Of your mind

Back to :
* ** ***
Then play the tabs
** 2x
***

Ending :
G5 F#5 G5  A5 G5 F#5 E5
E5



That's all!!!
Special tab 4 Didha

Klo ada yg tau webnya endank kasih tau gw ya!!!
            
Hard to play? Try these video lessons and learn fast. | Correct




comments powered by Disqus
↑ Back to top | Tablatures and chords are parodies/interpretations of the original songs. You may use it for private study, scholarship, research or language learning purposes only