» » »

Superman Is Dead, Kings Queens And Poison Tabs (ver.1)

Artists:  A B C D E F G H I J K L M N O P Q R S T U V W X Y Z # 

Kings Queens And Poison Tabs (ver.1)

Superman Is Dead Tabs
 Rating:
4/5 (4 votes)
Kings Queens And Poison lessons Tabs too difficult? Try these video lessons and learn fast
                Song        : Kings Queens And Poison
Album       : The Hangover Decade
Artist      : Superman Is Dead



Fig1
e|----8-------------------------------------------------|
B|--------------------------------------------------10--|
G|--9-----7h9-9-7------------7-----------7------7h9-----|
D|----------------10-9--9h10----9-7--7h9---9-7----------|
A|------------------------------------------------------|
E|------------------------------------------------------|

Fig2
e|--------------------------|
B|--------------------------|
G|--7-9-7-------------------|
D|--------10-9-10-9-7----7--|
A|--------------------10----|
E|--------------------------|

Fig3
e|--------------------------|
B|--5h6p5-----8-8----10-10--|
G|------------7-7----9--9---|
D|--------------------------|
A|--------------------------|
E|--------------------------|

Fig4
e|--------------------------------------------------------------|
B|--5h6p5-----8-8-----------------------------------------------|
G|------------7-7-----------------------------------------------|
D|--------------------------------------------------------------|
A|-------------------12-12-11-11-10-10-9-9-8-8-7-7-6-6-5-5-4-4--|
E|--------------------------------------------------------------|

Fig5
e|-----------------------------------------------------------------------------------|
B|-----------------------------------------------------------------------------------|
G|----------------------4h5-4----------4-4----4-5-5--4-5-7--5--4-5-4-----------------|
D|------5-7-7-5-7--7-7--------7-7-5-7-------7-------------------------7--7-5-7--7-7--|
A|--5h7------------------------------------------------------------------------------|
E|-----------------------------------------------------------------------------------|

Fig6
e|--------------------------------------------------------------------------|
B|--5---5-5--5---5------------------------------------------------------10--|
G|----7--------7---7--7-5-7-5--5-7-5-4-4--4-5-7-5--4-5-7-5--4-5-4/7--9------|
D|--------------------------------------------------------------------------|
A|--------------------------------------------------------------------------|
E|--------------------------------------------------------------------------|


intro:
Am Em F G Am

Fig1
Am Em F G Am

Am
when the sky is dark
Em
and my passion seems to strong
F       G       Am       Fig2
guess the queen has left this thorned heart alone

Am
tomorrow's broken dream
Em
is harder than i thought
F       G       Am
i fought the devil, find emptiness in me

Am
so that's the story i've made and all
Em
the consequences it claims
Fig3
F       G       Am
oh no my lady, this song made of gold

Fig1
Am Em F G Am

Am
when the flowers bloom and the
Em
thorns stick in my veins
F       G       Am       Fig2
push my blood into the edge of insanity

Am
evrything is a blur
Em
a picture of your kiss
F       G       Am       
tasted so sweet and poison, here i come

Am
inject myself with angels wings,
Em
lay me down here in a burning ring
Fig3
F       G       Am
oh no my lady, the memory remains

Am
so that's the story i've made and all
Em
the consequences it claims
Fig4
F       G       Am
oh no my lady, this song made of gold

C          G
cos i fought the war inside
F          G          Am
my pain explains the true meaning of life
C          G
inject myself with angels wings,
F          G          Am
lay me down here in a burning ring

Fig5
Am Em F G Am

Fig6
Am Em F G Am

Am
so that's the story i've made and all
Em
the consequences it claims
Fig3
F       G       Am
oh no my lady, this song made of gold

Am
inject myself with angels wings,
Em
lay me down here in a burning ring
Fig4
F       G       Am
oh no my lady, the memory remains

C          G
cos i fought the war inside
F          G          Am
my pain explains the true meaning of life
C          G
inject myself with angels wings,
F          G          Am
lay me down here in a burning ring

C          G
cos i fought the war inside
F          G          Am
my pain explains the true meaning of life
C          G
inject myself with angels wings,
F       G       Am
oh no my lady, the memory remains
            
Submit corrections

comments powered by Disqus
↑ Back to top | Superman Is Dead Tabs for Kings Queens And Poison. Lyrics for acoustic guitar and electric guitar. Tablatures and chords are parodies/interpretations of the original songs. You may use it for private study, scholarship, research or language learning purposes only