» » »

Hanya Hari Ini Tabs (ver.1)

Artists:  A B C D E F G H I J K L M N O P Q R S T U V W X Y Z # 

Hanya Hari Ini Tabs (ver.1)

Superman Is Dead
Rating:
0/5 (0 votes)

Hard to play? Try these video lessons and learn fast.
                Judul 		: Hanya Hari Ini
Artis 		: Superman Is Dead
Album 		: The Hangover Decade
Tab oleh 	: yoos_yoes


Tab1
e|-------------------|
B|------5-----5---5--|
G|--5-7---5-7---7----|
D|-------------------|
A|-------------------|
E|-------------------|

Tab2
e|-------------------------------------------------------------------------------------------|
B|-------------------------------------------------------------------------------------------|
G|-------------------------------------------------------------------------------------------|
D|----0h2p0---0-0h2p0---0---0h2p0---0-0h2p0---0---0h2p0---0-0h2p0---0---0h2p0---0-0h2p0---0--|
A|--3-------3---------3---3-------3---------3------------------------------------------------|
E|----------------------------------------------3-------3---------3---3-------3---------3----|

Intro:
C5 E5 A5 F5 G5  ...2X

C5		     E5			
Kulupakan minuman keras, saatnya ku beristirahat
A5		     F5		   G5
dari indahnya malam yang tak akan pernah kulupakan

(Tab1 berkali-kali)
C5		     E5
Sejenak ku beristirahat, saatnya tuk berolahraga
A5		     F5		   G5
dari indahnya malam yang tak akan pernah kulupakan

C5			A5
Berlari-lari di siang hari, sehatkan diri biar ga' cepat mati
G5			   F5	     G5
membentuk body, buang kalori, hari ini mau jaga kondisi
C5			A5	
Kuikuti gerak senam di tv, dan tak terasa damn kok jadi horny
G5		     F5		G5
Apakah ini akibat semalam kuminum sampai pagi

C5			  A5
Kuberharap akan menjadi sehat, dan tak selalu berpikir jahat
G5			F5	  G5
Memang tepat, mamang benar hari ini ******

(Tab1 berkali-kali)
C5		     A5
Esok hari akan menjelang, kurindukan malam yang pekat
G5			F5	    G5
bersama kawan, besama-sama kita rayakan kemenangan

D5		F5
Apakah ini kan berarti
D5		    F5
Untuk kelangsungan hidupku sampai nanti

Guitar1 : Tab2 ...3x
Guitar2 : C5 C5 G5 G5 ...3x

F5 E5 D5 B5 C5



Mainin Tab2 sangat sulit kompak ama drummer!
Salut buat Ahmad drummer'na Nasumamata Band (X-Band gw)
            
Hard to play? Try these video lessons and learn fast. | Correct




comments powered by Disqus
↑ Back to top | Tablatures and chords are parodies/interpretations of the original songs. You may use it for private study, scholarship, research or language learning purposes only