» » »

Superman Is Dead, Burn For You Tabs (ver.2)

Artists:  A B C D E F G H I J K L M N O P Q R S T U V W X Y Z # 

Burn For You Tabs (ver.2)

Superman Is Dead Tabs
 Rating:
4.2/5 (5 votes)
Burn For You lessons Tabs too difficult? Try these video lessons and learn fast
1
                Judul 		: Burn For You
Artis 		: Superman Is Dead
Album 		: Bad Bad Bad
Tab oleh 	: yoos_yoes

B5	     A5	  G5				D5
It’s been a while, we sat here with a glass of wine
	  A5		B5	 A5 G5
We don’t seem much happier today
	      A5	D5
It’s hard to talk
	B5		   G5
And to look at you in the eye
	   A5
Don’t you know…?

	  G5			A5
I have so many things I wanna say
	  D5		  B5
I got a story of million years
	   G5		   A5			D5
But in my head it hurts so much couldn’t understand it
	G5		  A5
Try to change who I am today
	D5			B5
Have enough just to hurt you more
	G5		A5
Baby all I wanna do, is burn for you

     D5		 A5
Baby burn, burn, burn for you
    B5		    F#5	
No matter when the sun goes down
G5		 D5		    G5		   A5
All the things I need to say, I’ll say it when I’m burning
D5	    A5
Burn, burn, burn for your love
	B5	      F#5
It’s worth it in the name of God
G5			  D5
The strongest words from my own heart
   G5		 A5
I wonder if it’s too late now!

D5 A5 G5 B5 A5 C#5 ... 2x
B5 F#5 E5 F#5 G5 F#5 E5
B5 F#5 E5 F#5 G5 A5

B5	    A5  G5			    D5
Across the line, between love and hate we thru
	A5		B5		A5 G5
Gave so much for me to think about
	      A5  D5	  B5 		   G5
I found it’s hard, to put all my trust in you
	   A5
Don’t you know?

		G5		  A5
You’ve hurt me so much I couldn’t say
		D5		     B5
You’ve blamed me for things I didn’t do
	    G5			A5		  D5
Don’t even know that I cook you breakfast in the morning

		G5		      A5
And when you’re drunk baby you don’t care
	  D5			B5
This is a game I don’t wanna play
	   G5			A5
You’re breaking my heart into a thousand piece


e|---------------------------------------------------------------------|
B|---------------------------------------------------------------------|
G|---------------------------------------------------------------------|
D|---------------------------------------------------------------------|
A|--------5-5-5-4-4-------------------------5-5-5-4-4-7-7-7-5-5-5-4-4--|
E|--7-7-7-----------5-5-5-3-3-3-5-5---7-7-7----------------------------|
PM ....................................................................

e|---------------------------------------------------------------------|
B|---------------------------------------------------------------------|
G|---------------------------------------------------------------------|
D|---------------------------------------------------------------------|
A|--------5-5-5-4-4-------------------------5-5-5-4-4-------7-7-7-5-5--|
E|--7-7-7-----------5-5-5-3-3-3-5-5---3---3-----------5---5------------|
PM .................................

e|---------------------------------------------------------------------|
B|---------------------------------------------------------------------|
G|---------------------------------------------------------------------|
D|---------------------------------------------------------------------|
A|--------5-5-5-4-4-------------------------5-5-5-4-4-7-7-7-5-5-5-4-4--|
E|--7-7-7-----------5-5-5-3-3-3-5-5---7-7-7----------------------------|
PM ....................................................................

e|---------------------------------------------------------------------|
B|---------------------------------------------------------------------|
G|---------------------------------------------------------------------|
D|------------------------------------5-5-5-5-5-5-5-5-7-7-7-7-7-7-7-7--|
A|--------5-5-5-4-4-------------------5-5-5-5-5-5-5-5-7-7-7-7-7-7-7-7--|
E|--7-7-7-----------5-5-5-3-3-3-5-5---3-3-3-3-3-3-3-3-5-5-5-5-5-5-5-5--|
PM ....................................................................

Buat Jabar Kirom
Thanks atas requestnya
Bikin gw semangat lagi ngedengerin lagu-lagu SID
            
Submit corrections

comments powered by Disqus
↑ Back to top | Superman Is Dead Tabs for Burn For You. Lyrics for acoustic guitar and electric guitar. 1 Tablatures and chords are parodies/interpretations of the original songs. You may use it for private study, scholarship, research or language learning purposes only