» » »

Ghost Tabs (ver.2)

Artists:  A B C D E F G H I J K L M N O P Q R S T U V W X Y Z # 

Ghost Tabs (ver.2)

Superheist
Rating:
0/5 (0 votes)

Hard to play? Try these video lessons and learn fast.
                "(1)
Intro: x2
B  |---------------------------------------------|
Gb |---------------------------------------------|
D  |---------------------------------------------|           
A  |---------------------------------------------|
E  |---------------------------------------------|
A  |-0--5--4----0--5--4----0--5--4----0--5--4----|

Intro: x3                                                last time x 1
B  |--------------------------------------------|------------------------------------|
Gb |--------------------------------------------|------------------------------------|
D  |--------------------------------------------|------------------------------------|           
A  |-0--5--4----0--5--4----0--5--4----0--5--4---|---0--5--4----0--5--4----0--4--5----|
E  |-0--5--4----0--5--4----0--5--4----0--5--4---|---0--5--4----0--5--4----0--4--5----|
A  |-0--5--4----0--5--4----0--5--4----0--5--4---|---0--5--4----0--5--4----0--4--5----|

Pre chorus:
B  |------------------------------------------------------------------|
Gb |------------------------------------------------------------------|
D  |------------------------------------------------------------------|           
A  |-0-0-0-0--4-4----0-0-0-0--4-4----0-0-0-0--4-4----0-0-0-0--5-5-----|
E  |-0-0-0-0--4-4----0-0-0-0--4-4----0-0-0-0--4-4----0-0-0-0--5-5-----|
A  |-0-0-0-0--4-4----0-0-0-0--4-4----0-0-0-0--4-4----0-0-0-0--5-5-----|

Chorus:
B  |--------------------------------------------------------------------------------------|
Gb |--------------------------------------------------------------------------------------|
D  |-7-7-7-7-7-7-7-7-7-7-7-7-7-7-//--9---9------------------------------------------------|           
A  |-x-x-x-x-x-x-x-x-x-x-x-x-x-x-//--x---x------9-9-9-9-9-9-9-9-9-9-9-9-9-9-------5-5-5-5-|
E  |-5-5-5-5-5-5-5-5-5-5-5-5-5-5-//--7---7------9-9-9-9-9-9-9-9-9-9-9-9-9-9-------5-5-5-5-|
A  |--------------------------------------------9-9-9-9-9-9-9-9-9-9-9-9-9-9-------5-5-5-5-|
"            
Hard to play? Try these video lessons and learn fast. | Correct




comments powered by Disqus
↑ Back to top | Tablatures and chords are parodies/interpretations of the original songs. You may use it for private study, scholarship, research or language learning purposes only