» » »

Superheist, Fightback Tabs (ver.1)

Artists:  A B C D E F G H I J K L M N O P Q R S T U V W X Y Z # 

Fightback Tabs (ver.1)

Superheist Tabs
 Rating:
4/5 (4 votes)
Fightback lessons Tabs too difficult? Try these video lessons and learn fast
                Intro: x 4.
Db |------------------------------------------------|
Ab |------------------------------------------------|
E  |------------------------------------------------|           
B  |------------------------------------------------|
G  |------------------------------------------------|
B  |-6-5-0-5--0----3---3--5-5-5-5---3---------------|

              |pm|

 Intro: x 4.
Db |------------------------------------------------|
Ab |------------------------------------------------|
E  |------------------------------------------------|           
B  |-6-5-0-5--0----3---3--5-5-5-5---3---------------|
G  |-6-5-0-5--0----3---3--5-5-5-5---3---------------|
B  |-6-5-0-5--0----3---3--5-5-5-5---3---------------|

              |pm|

Verse: 
Db |-------------------------------------------------------|
Ab |-------------------------------------------------------|
E  |-------------------------------------------------------|           
B  |-6\\\5-----3///5-----6\\\5-----3///55--3///5-6-5-------|
G  |-6\\\5-----3///5-----6\\\5-----3///55--3///5-6-5-------|
B  |-6\\\5-----3///5-----6\\\5-----3///55--3///5-6-5-------|

Chorus:
Db |----------------------------------------------------------------|
Ab |----------------------------------------------------------------|
E  |-2---2--2--2--------------3----2---2--2--2----------------------|           
B  |-2---2--2--2------2--1----3----2---2--2--2-------2--1----0------|
G  |-0---0--0--0-0----2--1----1----0---0--0--0-0-----2--1----0------|
B  |------------------2--1---------------------------2--1----0------|

Outro: x2.
Db |---------------------|
Ab |---------------------|
E  |---------------------|           
B  |-6\\\5-----3///5-----|
G  |-6\\\5-----3///5-----|
B  |-6\\\5-----3///5-----|
            
Submit corrections

comments powered by Disqus
↑ Back to top | Superheist Tabs for Fightback. Lyrics for acoustic guitar and electric guitar. Tablatures and chords are parodies/interpretations of the original songs. You may use it for private study, scholarship, research or language learning purposes only