» » »

Superheist, Slide Bass tabs (ver.1)

Artists:  A B C D E F G H I J K L M N O P Q R S T U V W X Y Z # 

Slide Bass tabs (ver.1)

Superheist Tabs
 Rating:
4/5 (4 votes)
Slide lessons Tabs too difficult? Try these video lessons and learn fast
1
                SUPERHEIST
SLIDE
Album - The Prize Recruit

/, \ = slide up, down

INTRO/VERSE (With distortion)
G|-----------------|-------------------|
D|-----------------|-------------------|
A|-----9--10-------|-----9--10---------|
E|-7------------10-|-7-----------10--9-|
B|-----------------|-------------------|

G|----------------------------------|
D|----------------------------------|
A|--------/11-11-11-11-11-11-11-11\-|
E|----2-3---------------------------|
B|-0--------------------------------|

CHORUS
G|-----------------------------------------------------------------------|
D|-----------------------------------------------------------------------|
A|-------------------/10-10-10-10-11-11-11-11-11-11-11-11-11-------------|
E|-3333333333333333-------------------------------------------2222222222-|
B|-----------------------------------------------------------------------|

LAST VERSE
G|----------------|
D|----------------|
A|----------------|
E|----2-3-3333333-|
B|-0--------------|

OUTRO
G|--------------12|-----------|
D|----------------|-----------|
A|-----9--10------|-----9--10-|
E|-7--------------|-7------10-|
B|----------------|-----------|
            
Submit corrections

comments powered by Disqus
↑ Back to top | Superheist Bass for Slide. Lyrics for acoustic guitar and electric guitar. 1 Tablatures and chords are parodies/interpretations of the original songs. You may use it for private study, scholarship, research or language learning purposes only