» » »

Superheist, Old Again Tabs (ver.1)

Artists:  A B C D E F G H I J K L M N O P Q R S T U V W X Y Z # 

Old Again Tabs (ver.1)

Superheist Tabs
 Rating:
4/5 (4 votes)
Old Again lessons Tabs too difficult? Try these video lessons and learn fast
                Intro: x 6.
B  |-----------------------------------------------|
Gb |----------0-------------------0----------------|
D  |-----------------------------------------------|           
A  |-0h2----------2----0h2----------2----0h2--3----|
E  |-----------------------------------------------|
A  |-----------------------------------------------|

Intro: x 8.
Db |-------------------------------------------------|
Ab |-------------------------------------------------|
E  |-------------------------------------------------|           
B  |-0--2--3--2----0--2--3--2----0--2--3-------------|              
G  |-0--2--3--2----0--2--3--2----0--2--3-------------|
B  |-0--2--3--2----0--2--3--2----0--2--3-------------|

Verse:
B  |-------------------------------------------------------------------------------|
Gb |-------------------------------------------------------------------------------|
D  |-4-4-4-4-4-4-4-4-//-7-7-7-7-7-7-7-7--------------------------------------------|           
A  |-4-4-4-4-4-4-4-4-//-7-7-7-7-7-7-7-7-------5-5-5-5-5-5-5-5-5-5-5-5-5-5-5-5------|
E  |-2-2-2-2-2-2-2-2-//-5-5-5-5-5-5-5-5-------5-5-5-5-5-5-5-5-5-5-5-5-5-5-5-5------|
A  |------------------------------------------5-5-5-5-5-5-5-5-5-5-5-5-5-5-5-5------|
            
Submit corrections

comments powered by Disqus
↑ Back to top | Superheist Tabs for Old Again. Lyrics for acoustic guitar and electric guitar. Tablatures and chords are parodies/interpretations of the original songs. You may use it for private study, scholarship, research or language learning purposes only