>
 >
Dear Enemy

Dear Enemy Guitar Tabs

Superheist - Dear Enemy chords, tabs, tablatures, lyrics

Guitar lessons | Add/correct | Request | Top 50 tabs Artists:  A B C D E F G H I J K L M N O P Q R S T U V W X Y Z 0-9

Dear Enemy Guitar Tabs – Superheist

CD, Sheet music, Poster

Do you like Dear Enemy? Share with your friends now
TabsTabs v2

KEY:
/ = Slide Up
\ = Slide Down
~ = Let Ring
PM = Palm Muted

TUNING: 7 string guitar standard (BEADGBE)
        6 string guitar tuned down 3 steps (BEADGB)


INTRO A/VERSE A:
E|--------------------------------------------------------|
B|--------------------------------------------------------|
G|--------------------------------------------------------|
D|--------------------------------------------------------|
A|-----------5-4-----------5-4-----------5-4--7-7-7-5-4--4|
E|-2-2-2-2-5-3-2-5-5-5-5-5-3-2-2-2-2-2-5-3-2--5-5-5-3-2--2|
B|-0-0-0-0-3-----3-3-3-3-3-----0-0-0-0-3------------------|
  P.M.

INTRO B/VERSE B:
E|----------------------------------------------|
B|----------------------------------------------|
G|----------------------------------------------|
D|----------------------------------------------|
A|-----------5-4-----------5-4-----------5-4-7~~|
E|-2-2-2-2-5-3-2-5-5-5-5-5-3-2-2-2-2-2-5-3-2-5~~|
B|-0-0-0-0-3-----3-3-3-3-3-----0-0-0-0-3--------|
P.M.

E|-------|
B|-------|
G|-------|
D|-------|
A|-2-2-2-|
E|-2-2-2-|
B|-0-0-0-|
P.M.

MAIN RIFF/PRECHORUS:
E|------------------------------------------------------------|
B|------------------------------------------------------------|
G|------------------------------------------------------------|
D|------------------------------------------------------------|
A|-------4/5\4---------4/5\4---------4/5\2--7-7-7\5\4---------|
E|-2-2-2-2/3\2---5-5-5-2/3\2---2-2-2-2/3\2--5-5-5\3\2---------|
B|-0-0-0---------3-3-3---------0-0-0--------------------------|


CHORUS:
E|-------------------------------|
B|-------------------------------|
G|-------------------------------|
D|-------------------------------|
A|-10-10---5-5---7--7-7-5-5-5-7-9|
E|-10-10---5-5---5--5-5-3-3-3-5-7|
B|-8--8----3-3-------------------|
 
PRE 2ND VERSE RIFF:
E|----------------------------------------------------|
B|----------------------------------------------------|
G|----------------------------------------------------|
D|----------------------------------------------------|
A|-2-2-----5-5-----2-2--------------------------------|
E|-2-2-----5-5-----2-2------5-5-5-3-2-2-2-------------|
B|-0-0-----3-3-----0-0--------------------------------|
P.M.

E|----------------------------------------------------|
B|----------------------------------------------------|
G|----------------------------------------------------|
D|----------------------------------------------------|
A|-2-2-----5-5-----2-2--------------------------------|
E|-2-2-----5-5-----2-2------5-5-5-3-7-7---------------|
B|-0-0-----3-3-----0-0--------------------------------|
P.M.

BRIDGE A:
E|---|
B|---|
G|---|
D|---|
A|-2~|
E|-2~|
B|-0~|
       
BRIDGE B: (Harmonics)
E|--------------------------------------------------------|
B|--------------------------------------------------------|
G|-----------5---5---5---5------55------55------55------5-|
D|----------5-5-5-5-5-5-5-5---55--55--55--55--55--55--55--|
A|---------5---5---5---5----55------55------55------55----|
E|--------------------------------------------------------|
B|--------------------------------------------------------|

BRIDGE C:
E|------------------------------------|
B|------------------------------------|
G|------------------------------------|
D|------------------------------------|
A|------------------------------X-X-X-|
E|-----15-15-15-15-15-15-15-15--X-X-X-|
B|------------------------------X-X-X-|

END WITH BRIDGE A:
E|----|
B|----|
G|----|
D|----|
A|--2~|
E|--2~|
B|--0~|

SONG STRUCTURE:
INTRO A x 1
INTRO B x 1
MAIN RIFF x 2
VERSE A x 1
VERSE B x 1
MAIN RIFF x 2
CHORUS x 2
PRE 2ND VERSE RIFF x 1
VERSE A x 1
VERSE B x 1
MAIN RIFF x 2
CHORUS x 4
BRIDGE A x 1
BRIDGE B x 1
MAIN RIFF x 2
CHORUS x 4
BRIDGE C x 4
MAIN RIFF x 2
BRIDGE A x1





Comments


Popular Superheist tabs & chords
Bullet Bass Tabs
Burnt Out Souls Bass Tabs
Crank The System Bass Tabs
Old Again Bass Tabs
Will The Change 6-String Bass Tabs
Bullet Tabs
Crank The System 1 Tabs
Happy Wasted Tabs
Salt In The Wounds Tabs
Two Faced 1 Tabs


Song lyrics



↑ Back to top | Tablatures and chords are parodies/interpretations of the original songs. You may use it for private study, scholarship, research or language learning purposes only
© 2014 AZChords.com Contact us | Privacy policy | DMCA | Add/correct tabs | Request tabs | Top 50 tabs