» » »

Superheist, Crank Up The System Bass tabs (ver.1)

Artists:  A B C D E F G H I J K L M N O P Q R S T U V W X Y Z # 

Crank Up The System Bass tabs (ver.1)

Superheist Tabs
Rating:
0/5 (0 votes)
Crank Up The System lessons Tabs too difficult? Try these video lessons and learn fast
                BAND/SUPERHEIST - SONG/CRANK UP THE SYSTEM

INTRO/CHORUS
G|--------------------------------------------|
D|--------------------------------------------|
A|--------------------------------------------|
E|--------------------------------------------|
B|-2h3-33--2h3-33--4444--2h3-33--2h3-33--0000-|

VERSE
G|-------|--------------------|-------------|
D|-------|--------------------|-------------|
A|-------|--------------------|-------------|
E|-------|-88888888--77777777-|-------------|
B|-0--00-|--------------------|-00000000000-|

VERSE 3
G|--------------------------|-----|
D|------6------6-6p5------6-|-----|
A|--------------------------|-----|
E|-5x-----5h6---------5X----|-----|
B|--------------------------|-\10-|
   SS   P S    P P    SS  P

BRIDGE
G|------------|------------|
D|------------|------------|
A|------------|------------|
E|------------|------------|
B|-0--5-3-5-4-|-0--3-5-4-3-|
            
Submit corrections

comments powered by Disqus
↑ Back to top | Superheist Bass for Crank Up The System. Lyrics for acoustic guitar and electric guitar. Tablatures and chords are parodies/interpretations of the original songs. You may use it for private study, scholarship, research or language learning purposes only