» » »

Crank The System Tabs (ver.2)

Artists:  A B C D E F G H I J K L M N O P Q R S T U V W X Y Z # 

Crank The System Tabs (ver.2)

Superheist
Rating:
0/5 (0 votes)

Hard to play? Try these video lessons and learn fast.
                
TUNING: Drop D down 3 steps (A E A D F# B) on a six string or Drop A (A E A D F# B E) On a seven string

KEY:
x = dead note
pm .= palm mute
h = hammer on
p = Pull Off
/ = slide up
\ = Slide down

INTRO:
B |----------------------------------------------------|
F#|----------------------------------------------------|
D |----------------------------------------------------|
A |----------------------------------------------------|
E |----------------------------------------------------|
A |-3h5-5-5--3h5-5-5--3h5-5/6---3h5-5-5--3h5-5-5|

MAIN RIFF/CHORUS:
B |----------------------------------------------------------------------------|
F#|----------------------------------------------------------------------------|
D |----------------------------------------------------------------------------|
A |----------------------------------------------------------------------------|
E |-3h5-5-5-x-x-3h5-5-5-x-x-3h5-5/6---3h5-5-5-x-x-3h5-5-5-x-x-x-3\0-0-|
A |-3h5-5-5-x-x-3h5-5-5-x-x-3h5-5/6---3h5-5-5-x-x-3h5-5-5-x-x-x-3\0-0-|

VERSE:
B |------------------------------------------------------------------------|
F#|------------------------------------------------------------------------|
D |------------------------------------------------------------------------|
A |-------------10-----------10-10------------------10h12p10---------10----|
E |----0h10h12----0h10h12---------12-------0h10h12--------------12-12------|
A |0-------------------------------------0---------------------------------|

B |--------------------------------------|
F#|--------------------------------------|
D |--------------------------------------|
A |-------------10-----------10-10-------|
E |----0h10h12----0h10h12---------12-----|
A |0-------------------------------------|


VERSE FILL:
B |----------------------|
F#|----------------------|
D |----------------------|
A |9-9-9-9--8-8-8-8-8----|
E |7-7-7-7--6-6-6-6-6----|
A |----------------------|

BRIDGE:
B |-----------------------------------|
F#|-----------------------------------|
D |-----------------------------------|
A |-0---6-5---3----0---5-6---3--5--1--|
E |-0---6-5---3----0---5-6---3--5--1--|
A |-0---6-5---3----0---5-6---3--5--1--|
hold these notes

ALTERNATIVE VERSE:
B |---|
F#|---|
D |---|
A |---|
E |---|
A |-0-|

ALTERNATIVE VERSE FILL
B |----------------------|
F#|----------------------|
D |----------------------|
A |----------------------|
E |5-5-5-5---3-3-3-3-3---|
A |5-5-5-5---3-3-3-3-3---|
use these 2 parts in the bridge after the verse

LAST CHORUS:
The normal chorus then again but instead of the dead notes, hold the notes

STRUCTURE
INTRO x 2
MAIN RIFF x 2
VERSE x 1
FILL x 1
VERSE x 1
FILL x 1
MAIN RIFF x 4
VERSE x 1
FILL x 1
VERSE x 1
FILL x 1
VERSE x 1
FILL x 1
VERSE x 1
FILL x 1
MAIN RIFF x 4
BRIDGE x 2
INTRO x 2
MAIN RIFF (NOTES HELD)  x 2
ALTERNATIVE VERSE x 3
ALT. VERSE FILL x 1
ALT. VERSE x 3
ALT. VERSE FILL x 1
MAIN RIFF x 4
MAIN RIFF (NOTES HELD) x 2
            
Hard to play? Try these video lessons and learn fast. | Correct




comments powered by Disqus
↑ Back to top | Tablatures and chords are parodies/interpretations of the original songs. You may use it for private study, scholarship, research or language learning purposes only