» » »

Superheist, Check Your Head Up Tabs (ver.1)

Artists:  A B C D E F G H I J K L M N O P Q R S T U V W X Y Z # 

Check Your Head Up Tabs (ver.1)

Superheist Tabs
 Rating:
4/5 (4 votes)
Check Your Head Up lessons Tabs too difficult? Try these video lessons and learn fast
1
                Superheist - Check your head up

tuning - Dadgbe

NOTE: the only thing i havnt tabbed is that bogus effect bit. u cant hear 

what hes playing there anyway and a cover would work perfectly fine without 

it id say. pretty much just listen to the song to get the timing of the 

riffs. heres the chords. its quite simple.

chorus / intro
E|-------------
B|-------------
G|-------------
D|-7--2--3--0--
A|-7--2--3--0--
D|-7--2--3--0--


verse and fill bits
E|--------
B|--------
G|--------
D|-3-5-0--
A|-3-5-0--
D|-3-5-0--
  palm mute

the little piano bit played over the main riff at the end (doesnt sound too 

bad as a second guitar)
E|-------------------------------------
B|-10-10-8-10-10-8-10-10-8-10-8-8-10---
G|------9-------9-------9------9-------
D|-------------------------------------
A|-------------------------------------
D|-------------------------------------


NOTE: this is my personal interpritation of this song and so i cant ever be 

100% on its correctness.
            
Submit corrections

comments powered by Disqus
↑ Back to top | Superheist Tabs for Check Your Head Up. Lyrics for acoustic guitar and electric guitar. 1 Tablatures and chords are parodies/interpretations of the original songs. You may use it for private study, scholarship, research or language learning purposes only