» » »

Superheist, Burnt Out Souls Tabs (ver.1)

Artists:  A B C D E F G H I J K L M N O P Q R S T U V W X Y Z # 

Burnt Out Souls Tabs (ver.1)

Superheist Tabs
 Rating:
4/5 (4 votes)
Burnt Out Souls lessons Tabs too difficult? Try these video lessons and learn fast
1
                Intro:
B  |-----------------------------------------------------------------------------------|
Gb |-----------------------------------------------------------------------------------|
D  |-10-10---12--12----10-10---12--12---10-10--10-10---12--12----10-10--12--12---------|           
A  |-10-10---12--12----10-10---12--12---10-10--10-10---12--12----10-10--12--12---------|
E  |--8--8---10--10-----8--8---10--10----8--8---8--8---10--10-----8--8--10--10---------|
A  |-----------------------------------------------------------------------------------|

Intro: x4
B  |---------------------------------------------|
Gb |---------------------------------------------|
D  |---------------------------------------------|           
A  |-------------------------11------11----------|
E  |-------------------------10------10----------|
A  |-0-0-0----0-0--0----0-0-------0--------------|

                                                   |pm|
Verse:
B  |---------------------------------------|
Gb |---------------------------------------|
D  |---------------------------------------|           
A  |---------------------------------------|
E  |--------------------------7h8----------|
A  |-0-0-0----0-0--0----0-0-----------10---|

Pre Chorus::
B  |-----------------------------------|
Gb |-----------------------------------|
D  |-------12-12-12-12-------12--------|           
A  |-------x---x--x--x--------x--------|
E  |-------10-10-10-10-------10----0---|
A  |-0-------------------0-------------|

Chorus: x 3                                                                                      End with
B  |-------------------------------------------------------------------------|-----------|
Gb |-------------------------------------------------------------------------|-----------|
D  |------------------------------3--3-------------------------------5--5----|-2-2-2-2---|           
A  |-1-1-1-1-1-1-1-1-1-1-1-1-1-1--3--3--3-3-3-3-3-3-3-3-3-3-3-3-3-3--5--5----|-2-2-2-2---|
E  |-1-1-1-1-1-1-1-1-1-1-1-1-1-1--1--1--3-3-3-3-3-3-3-3-3-3-3-3-3-3--3--3----|-0-0-0-0---|
A  |-1-1-1-1-1-1-1-1-1-1-1-1-1-1--------3-3-3-3-3-3-3-3-3-3-3-3-3-3----------|-----------|

Verse:
B  |------------------|
Gb |------------------|
D  |------------------|           
A  |-9-9----11-11-----|
E  |-8-8----10-10-----|
A  |------------------|
            
Submit corrections

comments powered by Disqus
↑ Back to top | Superheist Tabs for Burnt Out Souls. Lyrics for acoustic guitar and electric guitar. 1 Tablatures and chords are parodies/interpretations of the original songs. You may use it for private study, scholarship, research or language learning purposes only