» » »

Superheist, A Dignified Rage Tabs (ver.1)

Artists:  A B C D E F G H I J K L M N O P Q R S T U V W X Y Z # 

A Dignified Rage Tabs (ver.1)

Superheist Tabs
Rating:
0/5 (0 votes)
A Dignified Rage lessons Tabs too difficult? Try these video lessons and learn fast
                
TUNING: Drop D down 2.5 steps (A E A D F# B) on a six string 
     or Drop A (A E A D F# B E) On a seven string

This is more like how it is played live rather than the studio version. The only real difference I can hear is the last chorus. Live it is distorted and the studio version just seems to be heavier strumming.

KEY:
x = dead note
pm .= palm mute
h = hammer on
p = Pull Off
/ = slide up
\ = Slide down
~ = Let ring

MAIN RIFF A:
E|-----------|
B|-----------|
G|-----------|
D|------9\7~-|
A|-----------|
E|-5/7~------|
A|-----------|

Clean with delay. I have my delay time 35-37 and my feedback either 5-6.

MAIN RIFF B:
E|-----------|
B|-----------|
G|-----------|
D|-9977------|
A|-----------|
E|------5577-|
A|-----------|

Clean with delay.

CHORUS A:
E|------------------------------------------|
B|------------------------------------------|
G|------------------------------------------|
D|------------------------2-2---------------|
A|-2-2-2--4-4--2-2-2-4-4--2-2-4-4-4-6-6-7-7-|
E|-2-2-2--4-4--2-2-2-4-4--0-0-2-2-2-4-4-5-5-|
A|-2-2-2--4-4--2-2-2-4-4--------------------|

CHORUS B:
E|----------------------------------|
B|----------------------------------|
G|----------------------------------|
D|----------------------------------|
A|-2-2-2--4-4--2-2-2-4-4--2-4-2-6/7-|
E|-2-2-2--4-4--2-2-2-4-4--0-2-0-4/5-|
A|-2-2-2--4-4--2-2-2-4-4------------|

Chorus is played clean.

BRIDGE A:
E|--------------------------------------------|
B|--------------------------------------------|
G|--------------------------------------------|
D|-1212121212-1111111111----------------------|
A|--x-x-x-x-x--x-x-x-x-x--5-5-5-5-5-5-5-5-5-5-|
E|-1010101010--9-9-9-9-9--5-5-5-5-5-5-5-5-5-5-|
A|------------------------5-5-5-5-5-5-5-5-5-5-|

BRIDGE B:
E|---------------------------------------------|
B|---------------------------------------------|
G|---------------------------------------------|
D|-1212121212/1414\111111----------------------|
A|--x-x-x-x-x/-x-x\-x-x-x--5-5-5-5-5-5-5-5-5-5-|
E|-1010101010/1212\-9-9-9--5-5-5-5-5-5-5-5-5-5-|
A|-------------------------5-5-5-5-5-5-5-5-5-5-|

BRIDGE C
E|-------------------------------|
B|-------------------------------|
G|-------------------------------|
D|-1212121212/1414\111111--------|
A|--x-x-x-x-x/-x-x\-x-x-x--5--5~-|
E|-1010101010/1212\-9-9-9--5--5~-|
A|-------------------------5--5~-|

Bridge parts played with distortion.

STRUCTURE:

MAIN RIFF A x 4
MAIN RIFF B x 4
CHORUS A    x 3
CHORUS B    x 1
MAIN RIFF A x 4
MAIN RIFF B x 4
CHORUS A    x 4
BRIDGE A    x 1
BRIDGE B    x 1
BRIDGE A    x 1
BRIDGE C    x 1
MAIN RIFF A x 4
MAIN RIFF B x 4
CHORUS A    x 3*
CHORUS B    x 1*

*The last 2 times through the chorus are played with distortion live.
            
Submit corrections

comments powered by Disqus
↑ Back to top | Superheist Tabs for A Dignified Rage. Lyrics for acoustic guitar and electric guitar. Tablatures and chords are parodies/interpretations of the original songs. You may use it for private study, scholarship, research or language learning purposes only