» » »

Superheist, A Degnified Rage Tabs (ver.1)

Artists:  A B C D E F G H I J K L M N O P Q R S T U V W X Y Z # 

A Degnified Rage Tabs (ver.1)

Superheist Tabs
Rating:
0/5 (0 votes)
A Degnified Rage lessons Tabs too difficult? Try these video lessons and learn fast
                Superheist
A degnified rage
tune-CGCFAD

this is a 6 string version detuned down a whole step with drop c tuning
the proper version is 7 strings played lower but this sounds pretty correct

Intro/verse piano is also played
--------------------------------
-------------------------------- 
---4---6~~~~-----6---4~~~~~~~--- 
-------------------------------- 
-------------------------------- 
--------------------------------

Chorus/Claen chanel with distortion
-----------------------------------------------------------
----------------------------------------------------------- 
----------------------------------------------------------- 
----------------------------------------------------------- 
-5-5--8---5--5-5--8-----8-8-8--8--10--10---10---12-12------ 
-5-5--8---5--5-5--8-----8-8-8--8--10--10---10---12-12------ 

Solo
----------------------------------- 
----------------------------------- 
---7-6---7-6-7-9-------2-1---2-1--- 
-7-----7-------------2-----2-----2- 
----------------------------------- 
-----------------------------------
            

comments powered by Disqus
↑ Back to top | Superheist Tabs for A Degnified Rage. Lyrics for acoustic guitar and electric guitar. Tablatures and chords are parodies/interpretations of the original songs. You may use it for private study, scholarship, research or language learning purposes only