>
 >
1.4.U

1.4.U Guitar Tabs

Superheist - 1.4.U chords, tabs, tablatures, lyrics

Guitar lessons | Add/correct | Request | Top 50 tabs Artists:  A B C D E F G H I J K L M N O P Q R S T U V W X Y Z 0-9

1.4.U Guitar Tabs – Superheist

CD, Sheet music, Poster

Do you like 1.4.U? Share with your friends now
Tabs
1.4.U.
S U P E R H E I S T


TUNING: (B E A D F# b) (or use a 7 string)

KEY:
pm = palm mute
h  = hammer on
p  = pull off
~  = vibrato
/  = slide up
\  = slide down

INTRO 1:
b |----------------------------|
F#|----------------------------|
D |----------------------------|
A |----------------------------|
E |----------------------------|
B |-6/7-7-7-7-7\3~~-3~-3/5-5-0-|

INTRO 2:
b |----------------------------|
F#|----------------------------|
D |----------------------------|
A |-3/4-4-4-4-4----------------|
E |-1/2-2-2-2-2-5---5--5/7-7-2-|
B |-------------3---3--3/5-5-0-|

END OF INTRO:
b |--------------------|
F#|--------------------|
D |--------------------|
A |-3/4-4-4-4-4-----5~-|
E |-1/2-2-2-2-2-5------|
B |-------------3------|

VERSE:
b |-------------------------|
F#|-------------------------|
D |-------------------------|
A |-------------------------|
E |-------------------------|
B |-2-2-2-2-2--0-1-0-0-1--1-|
pm  . . . . .  . . . . .  .

PRE-CHORUS:
b |-------------------------|
F#|-------------------------|
D |-------------------------|
A |-------------------------|
E |-4-4-4-4-4--2-3-2-2-3--3-|
B |-2-2-2-2-2--0-1-0-0-1--1-|

CHORUS:
b |-----------------------------|
F#|-----------------------------|
D |-4---4-4--4-4--7---7-7--7-7--|
A |-4---4-4--4-4--7---7-7--7-7--|
E |-2---2-2--2-2--5---5-5--5-5--|
B |-----------------------------|

BRIDGE:
b |-------------------------------------------|
F#|-------------------------------------------|
D |-14--11--9--11--7---14--11--9--11--16---14-|
A |-------------------------------------------|
E |-12--9---7--9---5---12--9---7--9---14---12-|
B |-------------------------------------------|
This is just the changes, the rest just do by ear.

yeah!





Comments


Popular Superheist tabs & chords
Burnt Out Souls Bass Tabs
Step Back 5 String Bass Tabs
The Fight Back Bass Tabs
1 4 U Tabs
Burnt Out Souls Tabs
Crank The System 1 Tabs
Ghost Tabs
Have Your Way Tabs
Step Back Tabs
Two Faced (Check Your Head Up) Tabs


Song lyrics



↑ Back to top | Tablatures and chords are parodies/interpretations of the original songs. You may use it for private study, scholarship, research or language learning purposes only
© 2014 AZChords.com Contact us | Privacy policy | DMCA | Add/correct tabs | Request tabs | Top 50 tabs