» » »

Superchunk, White Noise Tabs (ver.1)

Artists:  A B C D E F G H I J K L M N O P Q R S T U V W X Y Z # 

White Noise Tabs (ver.1)

Superchunk Tabs
 Rating:
4/5 (4 votes)
White Noise lessons Tabs too difficult? Try these video lessons and learn fast
                -------------------------------------------------------------------------------
-------------------------------------------------------------------------------

intro: G D C

acoustic guitar part plus piano:

e|---------------------------------------------------------------------------|
B|---------------------------------------------------------------------------|
G|-------------7-7-7-7---5-4-5-4---------------------------------------------|
D|--5-4-5-4----7-7-7-7---5-5-5-5---------------------------------------------|
A|--5-5-5-5----5-5-5-5---3-3-3-3---------------------------------------------|
E|--3-3-3-3------------------------------------------------------------------|

lightly overdriven guitar part played during verse:

e|---------------------------------------------------------------------------|
B|---------------------------------------------------------------------------|
G|---------------------------------------------------------------------------|
D|---------------------------------------------------------------------------|
A|----------5--5----3--3------3--3----------5--5----3--3---2---0-------------|
E|--3-3------------------------------3-3-------------------------------------|

e|---------------------------------------------------------------------------|
B|---------------------------------------------------------------------------|
G|---------------------------------------4-4-4-4-4-4--5-5-5-5----------------|
D|---------------------------------------4-4-4-4-4-4--5-5-5-5----------------|
A|----------5--5----3--3------3--3-------2-2-2-2-2-2--3-3-3-3----------------|
E|--3-3----------------------------------------------------------------------|

verse:

     G        D   C                              G        D         C
Come on, come on,   that dirty water should have run this bridge by now

             G    D              C
I've been all day leaning on the rail

Bm                    C                      G
Looking for a ripple, looking for you on the bow

          D           C
When your making hand signals

             G          D       C
Well, you're frantic to show me

               G     D
And I decipher okay

        C                   Bm
But you never did know me

           C
You just knew what to say


distorted guitar during chorus:

e|--3--3--0---3--3---0---3--3---0---3--3--5p3--0---3--3----7--7\5--5\3---3-3---|
B|-----------------------------------------------------------------------------|
G|-----------------------------------------------------------------------------|
D|-----------------------------------------------------------------------------|
A|-----------------------------------------------------------------------------|
E|-----------------------------------------------------------------------------|

chorus:

         G               A5 G
And it's white noise and wishes

     C                         G
That held us together, I know

       A5 G      C                    G
Only a fool even mentions forever, so I

  A5 G      C                        G  C
I wish warm weather on your upturned face

        G             A5 G
We were swimming like fishes

    C                      G
In all kinds of weather, I know

       A5 G      C                    G
Only a fool even whispers forever, so I

  A5 G      C                        G   C
I wish warm weather on your upturned face

rhythm guitar during chorus:
    G         A5  G       C
e|----------------------------------------------------------------------------------|
B|----------------------------------------------------------------------------------|
G|-----------------------5-5-5-5----------------------------------------------------|
D|--5-5----5-5/7-5-------5-5-5-5---etc.---------------------------------------------|
A|--5-5----5-5/7-5-------3-3-3-3----------------------------------------------------|
E|--3-3----0-3/5-3------------------------------------------------------------------|

piano solo over verse chords...

verse:

     G        D           C                 G
Come on, come on, are you still overheated

           D            C                  G
You lashed out, I think you just needed to show

          D      C
You could cut me there

       Bm                             C                    G
And to think that you thought I would lose enough blood to care

   D             C                         G
Grab this golden ring, it's a halo from me

       D           C
It's how a set you free

           G             D           C
But you're building me a box in your mind

Bm                       C
Honey, I tell you it's a waste of pine


(to chorus...)

         G               A5 G
And it's white noise and wishes

     C                         G
That held us together, I know

       A5 G      C                        G
Only a fool even thinks about forever, so I

  A5 G      C                        G  C
I wish warm weather on your upturned face

        G             A5 G
We were swimming like fishes

    C                      G
In all kinds of weather, I know

       A5 G      C                    G
Only a fool even whispers forever, so I

  A5 G      C                        G   C
I wish warm weather on your upturned face


then go crazy on a guitar solo

| /  slide up
| \  slide down
| h  hammer-on
| p  pull-off
| ~  vibrato
| +  harmonic
| x  Mute note
===============================================================================
            
Submit corrections

comments powered by Disqus
↑ Back to top | Superchunk Tabs for White Noise. Lyrics for acoustic guitar and electric guitar. Tablatures and chords are parodies/interpretations of the original songs. You may use it for private study, scholarship, research or language learning purposes only