>
 >
Hello Hawk

Hello Hawk Guitar Tabs

Superchunk - Hello Hawk chords, tabs, tablatures, lyrics

Guitar lessons | Add/correct | Request | Top 50 tabs Artists:  A B C D E F G H I J K L M N O P Q R S T U V W X Y Z 0-9

Hello Hawk Guitar Tabs – Superchunk

CD, Sheet music, Poster

Do you like Hello Hawk? Share with your friends now
Bass TabsTabs
This is the first transcription I've done in a while, so go easy! I've 
(to my ears, at least), but I'm not so sure of the guitar part at the
outro. I've also arranged some of the string and horn parts, using only



"Hello Hawk"



   Intro
    Q=135
   3/4
    Gtr I (Dist)
     E E E E E E    E E E E E E    E E E E E E    E E E E E E  4x
||---------------|--------------|--------------|---------------||
||o--------------|--------------|--------------|--------------o||
||---7-7-7-7-7-7-|--7-7-6-6-6-6-|--6-6-6-6-4-4-|--4-4-4-4-4-4--||
||---7-7-7-7-7-7-|--7-7-6-6-6-6-|--6-6-6-6-4-4-|--4-4-4-4-4-4--||
||o--5-5-5-5-5-5-|--5-5-4-4-4-4-|--4-4-4-4-2-2-|--2-2-2-2-2-2-o||
||---------------|--------------|--------------|---------------||
|
|   Gtr II (Dist)
|    E E E E Q      E E E E Q      E E E E Q      E E E E Q    4x
||---------------|--------------|--------------|---------------||
||o--------------|--------------|--------------|--------------o||
||--/6-4-2-4-2---|-/6-4-2-4-2---|-/6-4-2-4-2---|-/6-4-2-4-2----||
||---------------|--------------|--------------|---------------||
||o--------------|--------------|--------------|--------------o||
||---------------|--------------|--------------|---------------||


 Verse 1
 4/4
  Gtr I (Clean)
  E E E E E  E  E E    E  E E  E  E E E E
|-------------------|---------------------|
|-------------------|---------------------|
|-6---6---6-----6---|--6----6-----6---6---|
|-7---7---7-----7---|--7----7-----7---7---|
|-------------------|---------------------|
|-------------------|---------------------|
|
| Gtr II (Dist)
|                      >
| Q   E Q   +Q.       +H      +Q      Q
|-------------------|---------------------|
|-------------------|---------------------|
|-----4h6---(6)-----|-(6)-----(6)-----4---|
|-------------------|---------------------|
|-------------------|---------------------|
|-------------------|---------------------|


   E  E  E E   E E  E E    E  E  E E  E E  E E
|-10----10----10---10---|-10----10---10---10----|
|--7-----7-----7----7---|--7-----7----7----7----|
|--7-----7-----7----7---|--7-----7----7----7----|
|-----------------------|-----------------------|
|-----------------------|-----------------------|
|-----------------------|-----------------------|
|
|  Q.      Q.       Q     +Q     Q    Q    Q
|-----------------------|-----------------------|
|-----------------------|-----------------------|
|--2-------4--------2---|-(2)----1----2----1----|
|-----------------------|-----------------------|
|-----------------------|-----------------------|
|-----------------------|-----------------------|


 4/4
  Gtr I (Clean)
  Q  E E +Q   Q    Q  E E +Q   Q    Q  E E +Q   Q    Q  E  E  +Q   Q
|-4--4-4-(4)--4--|-5--5-5-(5)--5--|----------------|-------------------|
|-3--3-3-(3)--3--|-6--6-6-(6)--6--|----------------|-------------------|
|-4--4-4-(4)--4--|-7--7-7-(7)--7--|-9--9-9-(9)--9--|-7--7--7--(7)--7---|
|-4--4-4-(4)--4--|-7--7-7-(7)--7--|-9--9-9-(9)--9--|-7--7--7--(7)--7---|
|-2--2-2-(2)--2--|-5--5-5-(5)--5--|-7--7-7-(7)--7--|-5--5--5--(5)--5---|
|----------------|----------------|----------------|-------------------|
|
|    Gtr II (Dist)
| Q  Q    Q   Q    Q  Q    Q   Q    Q  E E +Q   Q    Q  E  E  +Q   Q
|----------------|----------------|----------------|-------------------|
|----------------|----------------|----------------|-------------------|
|----6----7---6--|-4--6----7---6--|-9--9-9-(9)--9--|-7--7-11-(11)--7---|
|----------------|----------------|----------------|-------------------|
|----4----5---4--|-2--4----5---4--|-7--7-7-(7)--7--|-5--5--9--(9)--5---|
|----------------|----------------|----------------|-------------------|


  Gtr I (Clean)
  E E E E E E E E   E E E E E E E E
|-----------------|-----------------|
|-----------------|-----------------|
|-6---6---6---6---|-6---6---6---6---|
|-7---7---7---7---|-7---7---7---7---|
|-----------------|-----------------|
|-----------------|-----------------|
|
| Gtr II (Dist)
| Q   E E H         Q   E E Q   Q
|-----------------|-----------------|
|-----------------|-----------------|
|-----4h6-6-------|-----6-6-6---4---|
|-----------------|-----------------|
|-----------------|-----------------|
|-----------------|-----------------|


   E  E  E E   E E  E E    E  E  E E  E E  E E
|-10----10----10---10---|-10----10---10---10---|
|--7-----7-----7----7---|--7-----7----7----7---|
|--7-----7-----7----7---|--7-----7----7----7---|
|-----------------------|----------------------|
|-----------------------|----------------------|
|-----------------------|----------------------|
|
|  Q.      Q.       Q     +Q     Q    Q    Q
|-----------------------|----------------------|
|-----------------------|----------------------|
|--2-------4--------2---|-(2)----1----2----1---|
|-----------------------|----------------------|
|-----------------------|----------------------|
|-----------------------|----------------------|


  Gtr I (Clean)
  Q  E E +Q   Q    Q  E E +Q   Q    Q  E E +Q   Q     Q   E  E  +Q      Q
|-4--4-4-(4)--4--|-5--5-5-(5)--5--|----------------|-------------------------|
|-3--3-3-(3)--3--|-6--6-6-(6)--6--|----------------|-------------------------|
|-4--4-4-(4)--4--|-7--7-7-(7)--7--|-9--9-9-(9)--9--|--7---7--7--(7)-----7----|
|-4--4-4-(4)--4--|-7--7-7-(7)--7--|-9--9-9-(9)--9--|--7---7--7--(7)-----7----|
|-2--2-2-(2)--2--|-5--5-5-(5)--5--|-7--7-7-(7)--7--|--5---5--5--(5)-----5----|
|----------------|----------------|----------------|-------------------------|
|
| Gtr II (Dist)
| Q  Q    Q   Q    Q  Q    Q   Q    Q  E E +Q   Q     Q   E  E  +E   E  E  E
|----------------|----------------|----------------|-------------------------|
|----------------|----------------|----------------|-------------------------|
|----6----7---6--|-4--6----7---6--|-9--9-9-(9)--9--|-11--11-11-(11)-11-11-11-|
|----------------|----------------|----------------|-------------------------|
|----4----5---4--|-2--4----5---4--|-7--7-7-(7)--7--|--9---9--9--(9)--9--9--9-|
|----------------|----------------|----------------|-------------------------|


  Gtr I (Clean)
  E E E E E  E  E E   E E E E E E E E
|-------------------|-----------------|
|-------------------|-----------------|
|-6---6---6-----6---|-6---6---6---6---|
|-7---7---7-----7---|-7---7---7---7---|
|-------------------|-----------------|
|-------------------|-----------------|
|
| Gtr II (Dist)
| Q   E Q   +Q.       Q   E E Q   Q
|-------------------|-----------------|
|-------------------|-----------------|
|-----4h6---(6)-----|-----6-6-6---6---|
|-------------------|-----------------|
|-------------------|-----------------|
|-------------------|-----------------|


    E  E  E  E  E E  E E     E  E  E  E  E E  E E
|--10----10----10---10---|--10----10----10---10---|
|---7-----7-----7----7---|---7-----7-----7----7---|
|---7-----7-----7----7---|---7-----7-----7----7---|
|------------------------|------------------------|
|------------------------|------------------------|
|------------------------|------------------------|
|
|   Q.       E  Q    Q      +Q     E  E  Q    Q
|------------------------|------------------------|
|-/10-------10-10---10---|-(10)---10-10--9----7---|
|------------------------|------------------------|
|------------------------|------------------------|
|------------------------|------------------------|
|------------------------|------------------------|


  Gtr I (Clean)
  Q  E E +Q   Q    Q  E E +Q   Q    Q  E E +Q   Q    Q  E  E +Q    Q
|-4--4-4-(4)--4--|-5--5-5-(5)--5--|----------------|-------------------|
|-3--3-3-(3)--3--|-6--6-6-(6)--6--|----------------|-------------------|
|-4--4-4-(4)--4--|-7--7-7-(7)--7--|-9--9-9-(9)--9--|-7--7--7-(7)---7---|
|-4--4-4-(4)--4--|-7--7-7-(7)--7--|-9--9-9-(9)--9--|-7--7--7-(7)---7---|
|-2--2-2-(2)--2--|-5--5-5-(5)--5--|-7--7-7-(7)--7--|-5--5--5-(5)---5---|
|----------------|----------------|----------------|-------------------|
|
| Gtr II (Dist)
| Q  Q    Q   Q    Q  Q    Q   Q    Q  E E +Q   Q    Q  E  E  E  E E E
|----------------|----------------|----------------|-------------------|
|----------------|----------------|----------------|-------------------|
|----6----7---6--|-4--6----7---6--|-9--9-9-(9)--9--|-7--7-11-11--7-7-7-|
|----------------|----------------|----------------|-------------------|
|----4----5---4--|-2--4----5---4--|-7--7-7-(7)--7--|-5--5--9--9--5-5-5-|
|----------------|----------------|----------------|-------------------|


 Pre-Chorus        Chorus 1
                   3/4
  Gtr I (Dist)     Gtr I (Clean)
  E E E E E E E E    E E  E  E  Q     E  E  E  E  Q     E  E  E  E  Q
|-----------------|----------------|-----------------|-----------------|
|-----------------|-14---10-12-10--|-14-12-10-12-10--|-14-10-10-12-10--|
|-9-9-9-9-9-9-9-9-|----------------|-----------------|-----------------|
|-9-9-9-9-9-9-9-9-|----------------|-----------------|-----------------|
|-7-7-7-7-7-7-7-7-|----------------|-----------------|-----------------|
|-7-7-7-7-7-7-7-7-|----------------|-----------------|-----------------|
|
| Gtr II (Dist)
| E E E E E E E E    W                W                 W
|-----------------|----------------|-----------------|-----------------|
|-----------------|----------------|-----------------|-----------------|
|-9-9-9-9-9-9-9-9-|----------------|-----------------|-----------------|
|-9-9-9-9-9-9-9-9-|----------------|-----------------|-----------------|
|-7-7-7-7-7-7-7-7-|----------------|-----------------|-----------------|
|-7-7-7-7-7-7-7-7-|----------------|-----------------|-----------------|


  Gtr I (Clean)
   E  E  E  E  Q     E  E  E  E  Q     E  E  E  E  Q
|-----------------|-----------------|-----------------|
|-14-12-10-12-10--|-14-12-10-12-10--|-14-12-10-12-10--|
|-----------------|-----------------|-----------------|
|-----------------|-----------------|-----------------|
|-----------------|-----------------|-----------------|
|-----------------|-----------------|-----------------|



   E  E  E  E  Q     E  E  E  E  E  E
|-----------------|--------------------|
|-14-12-10-12-10--|-14-12-10-12-10-12--|
|-----------------|--------------------|
|-----------------|--------------------|
|-----------------|--------------------|
|-----------------|--------------------|


                                                   Bridge
                                          2/4      3/4
  Gtr I (Clean)                                    Gtr I (Dist)
   E  E  E  E  Q     E  E  +E   E  +E  E   +H        E  E  E  E  E E
|-----------------|----------------------|--------|------------------|
|-14-12-10-12-10--|-12-10-(10)-----------|--------|------------------|
|-----------------|------------10-(10)-9-|-(9)----|--6--6--6--6--6-6-|
|-----------------|----------------------|--------|--6--6--6--6--6-6-|
|-----------------|----------------------|--------|--4--4--4--4--4-4-|
|-----------------|----------------------|--------|------------------|
|
| Gtr II					    Gtr II (Dist)
|  W                 W                      H        E  E  E  E  Q
|-----------------|----------------------|--------|------------------|
|-----------------|----------------------|--------|-14-12-10-12-10---|
|-----------------|----------------------|--------|------------------|
|-----------------|----------------------|--------|------------------|
|-----------------|----------------------|--------|------------------|
|-----------------|----------------------|--------|------------------|


  Gtr I (Dist)
   E  E  E  E  E E    E  E  E  E  E E
|------------------|------------------|
|------------------|------------------|
|--6--6------------|------------------|
|--6--6--2--2--2-2-|--2--2--2--2--3-3-|
|--4--4--2--2--2-2-|--2--2--2--2--3-3-|
|--------0--0--0-0-|--0--0--0--0--1-1-|
|
| Gtr II (Dist)
|  E  E  E  E  Q      E  E  E  E  Q
|------------------|------------------|
|-14-12-10-12-10---|-14-12-10-12-10---|
|------------------|------------------|
|------------------|------------------|
|------------------|------------------|
|------------------|------------------|


   E  E  E  E  E E    E  E  E  E  E E    E  E  E  E  E E
|------------------|------------------|-------------------|
|------------------|------------------|-------------------|
|------------------|--2--2--2--2--2-2-|--2--2--6--6--6-6--|
|--3--3--3--3--3-3-|--2--2--2--2--2-2-|--2--2--6--6--6-6--|
|--3--3--3--3--3-3-|--0--0--0--0--0-0-|--0--0--4--4--4-4--|
|--1--1--1--1--1-1-|------------------|-------------------|
|
|  E  E  E  E  Q      E  E  E  E  Q      E  E  E  E  Q
|------------------|------------------|-------------------|
|-14-12-10-12-10---|-14-12-10-12-10---|-14-12-10-12-10----|
|------------------|------------------|-------------------|
|------------------|------------------|-------------------|
|------------------|------------------|-------------------|
|------------------|------------------|-------------------|


  Gtr I (Dist)
   E  E  E  E  E E    E  E  E  E  E E
|------------------|------------------|
|------------------|------------------|
|--6--6--6--6------|------------------|
|--6--6--6--6--2-2-|--2--2--2--2--2-2-|
|--4--4--4--4--2-2-|--2--2--2--2--2-2-|
|--------------0-0-|--0--0--0--0--0-0-|
|
| Gtr II (Dist)
|  E  E  E  E  Q      E  E  E  E  Q
|------------------|------------------|
|-14-12-10-12-10---|-14-12-10-12-10---|
|------------------|------------------|
|------------------|------------------|
|------------------|------------------|
|------------------|------------------|


                                            2/4
   E  E  E  E  E E    E  E   E   E  E   E     E  E   E  E
|------------------|-----------------------|--------------|
|------------------|-----------------------|--------------|
|------------------|-----------------------|--------------|
|--3--3--3--3--3-3-|--3--3---3---3--3---3--|--3--3---3--3-|
|--3--3--3--3--3-3-|--3--3---3---3--3---3--|--3--3---3--3-|
|--1--1--1--1--1-1-|--1--1---1---1--1---1--|--1--1---1--1-|
|
|  E  E  E  E  Q      E  E  +E   E  E  +E     E  E  +Q
|------------------|-----------------------|--------------|
|-14-12-10-12-10---|-12-10-(10)-12-10-(10)-|-12-10-(10)---|
|------------------|-----------------------|--------------|
|------------------|-----------------------|--------------|
|------------------|-----------------------|--------------|
|------------------|-----------------------|--------------|


 Verse 2
 4/4
  Gtr I (Clean)
  E E E E E  E  E E    E  E E  E  E E E E
|-------------------|---------------------|
|-------------------|---------------------|
|-6---6---6-----6---|--6----6-----6---6---|
|-7---7---7-----7---|--7----7-----7---7---|
|-------------------|---------------------|
|-------------------|---------------------|
|
| Gtr II (Dist)
|                      >
| Q   E Q   +Q.       +H      +Q      Q
|-------------------|---------------------|
|-------------------|---------------------|
|-----4h6---(6)-----|-(6)-----(6)-----4---|
|-------------------|---------------------|
|-------------------|---------------------|
|-------------------|---------------------|
|
| Strings arr. guitar
| W                    Q       E  E Q   Q
|-------------------|---------------------|
|-------------------|---------------------|
|-------------------|----------9--9-6---4-|
|-------------------|---------------------|
|-------------------|---------------------|
|-------------------|---------------------|


   E  E  E E   E E  E E    E  E  E E  E E  E E
|-10----10----10---10---|-10----10---10---10----|
|--7-----7-----7----7---|--7-----7----7----7----|
|--7-----7-----7----7---|--7-----7----7----7----|
|-----------------------|-----------------------|
|-----------------------|-----------------------|
|-----------------------|-----------------------|
|
|  Q.      Q.       Q     +Q     Q    Q    Q
|-----------------------|-----------------------|
|-----------------------|-----------------------|
|--2-------4--------2---|-(2)----1----2----1----|
|-----------------------|-----------------------|
|-----------------------|-----------------------|
|-----------------------|-----------------------|
|
|  W                      +H          Q    Q
|-----------------------|-----------------------|
|-----------------------|-----------------------|
|--6--------------------|-(6)---------7----6----|
|-----------------------|-----------------------|
|-----------------------|-----------------------|
|-----------------------|-----------------------|


  Gtr I (Clean)
  Q   E  E +Q      Q    Q  E E +Q   Q    Q  E E +Q   Q    Q  E  E  +Q   Q
|-4---4--4-(4)-----4--|-5--5-5-(5)--5--|----------------|------------------|
|-3---3--3-(3)-----3--|-6--6-6-(6)--6--|----------------|------------------|
|-4---4--4-(4)-----4--|-7--7-7-(7)--7--|-9--9-9-(9)--9--|-7--7--7--(7)--7--|
|-4---4--4-(4)-----4--|-7--7-7-(7)--7--|-9--9-9-(9)--9--|-7--7--7--(7)--7--|
|-2---2--2-(2)-----2--|-5--5-5-(5)--5--|-7--7-7-(7)--7--|-5--5--5--(5)--5--|
|---------------------|----------------|----------------|------------------|
|
| Gtr II (Dist)
| Q   Q     Q      Q    Q  Q    Q   Q    Q  E E +Q   Q    Q  E  E  +Q   Q
|---------------------|----------------|----------------|------------------|
|---------------------|----------------|----------------|------------------|
|-----6-----7------6--|-4--6----7---6--|-9--9-9-(9)--9--|-7--7-11-(11)--7--|
|---------------------|----------------|----------------|------------------|
|-----4-----5------4--|-2--4----5---4--|-7--7-7-(7)--7--|-5--5--9--(9)--5--|
|---------------------|----------------|----------------|------------------|
|
| Strings
| Q  +E  E +E  +E  Q    W                W                W
|---------------------|----------------|----------------|------------------|
|---------------------|----------------|----------------|------------------|
|-4--(4)-6-(6)-(6)-7--|-7--------------|-9--------------|-7----------------|
|---------------------|----------------|----------------|------------------|
|---------------------|----------------|----------------|------------------|
|---------------------|----------------|----------------|------------------|


  Gtr I (Clean)
  E E E E E E E E   E E E E E E E E
|-----------------|-----------------|
|-----------------|-----------------|
|-6---6---6---6---|-6---6---6---6---|
|-7---7---7---7---|-7---7---7---7---|
|-----------------|-----------------|
|-----------------|-----------------|
|
| Gtr II (Dist)
| Q   E E H         Q   E E Q   Q
|-----------------|-----------------|
|-----------------|-----------------|
|-----4h6-6-------|-----6-6-6---4---|
|-----------------|-----------------|
|-----------------|-----------------|
|-----------------|-----------------|


   E  E  E E   E E  E E    E  E  E E  E E  E E
|-10----10----10---10---|-10----10---10---10---|
|--7-----7-----7----7---|--7-----7----7----7---|
|--7-----7-----7----7---|--7-----7----7----7---|
|-----------------------|----------------------|
|-----------------------|----------------------|
|-----------------------|----------------------|
|
|  Q.      Q.       Q     +Q     Q    Q    Q
|-----------------------|----------------------|
|-----------------------|----------------------|
|--2-------4--------2---|-(2)----1----2----1---|
|-----------------------|----------------------|
|-----------------------|----------------------|
|-----------------------|----------------------|


  Gtr I (Clean)
  Q  E E +Q   Q    Q  E E +Q   Q    Q  E E +Q   Q     Q   E  E  +Q      Q
|-4--4-4-(4)--4--|-5--5-5-(5)--5--|----------------|-------------------------|
|-3--3-3-(3)--3--|-6--6-6-(6)--6--|----------------|-------------------------|
|-4--4-4-(4)--4--|-7--7-7-(7)--7--|-9--9-9-(9)--9--|--7---7--7--(7)-----7----|
|-4--4-4-(4)--4--|-7--7-7-(7)--7--|-9--9-9-(9)--9--|--7---7--7--(7)-----7----|
|-2--2-2-(2)--2--|-5--5-5-(5)--5--|-7--7-7-(7)--7--|--5---5--5--(5)-----5----|
|----------------|----------------|----------------|-------------------------|
|
| Gtr II (Dist)
| Q  Q    Q   Q    Q  Q    Q   Q    Q  E E +Q   Q     Q   E  E  +E   E  E  E
|----------------|----------------|----------------|-------------------------|
|----------------|----------------|----------------|-------------------------|
|----6----7---6--|-4--6----7---6--|-9--9-9-(9)--9--|-11--11-11-(11)-11-11-11-|
|----------------|----------------|----------------|-------------------------|
|----4----5---4--|-2--4----5---4--|-7--7-7-(7)--7--|--9---9--9--(9)--9--9--9-|
|----------------|----------------|----------------|-------------------------|


  Gtr I (Clean)
  E E E E E  E  E E   E E E E E E E E
|-------------------|-----------------|
|-------------------|-----------------|
|-6---6---6-----6---|-6---6---6---6---|
|-7---7---7-----7---|-7---7---7---7---|
|-------------------|-----------------|
|-------------------|-----------------|
|
| Gtr II (Dist)
| Q   E Q   +Q.       Q   E E Q   Q
|-------------------|-----------------|
|-------------------|-----------------|
|-----4h6---(6)-----|-----6-6-6---6---|
|-------------------|-----------------|
|-------------------|-----------------|
|-------------------|-----------------|


    E  E  E  E  E E  E E     E  E  E  E  E E  E E
|--10----10----10---10---|--10----10----10---10---|
|---7-----7-----7----7---|---7-----7-----7----7---|
|---7-----7-----7----7---|---7-----7-----7----7---|
|------------------------|------------------------|
|------------------------|------------------------|
|------------------------|------------------------|
|
|   Q.       E  Q    Q      +Q     E  E  Q    Q
|------------------------|------------------------|
|-/10-------10-10---10---|-(10)---10-10--9----7---|
|------------------------|------------------------|
|------------------------|------------------------|
|------------------------|------------------------|
|------------------------|------------------------|


  Gtr I (Clean)
  Q  E E +Q   Q    Q  E E +Q   Q    Q  E E +Q   Q    Q  E  E +Q    Q
|-4--4-4-(4)--4--|-5--5-5-(5)--5--|----------------|-------------------|
|-3--3-3-(3)--3--|-6--6-6-(6)--6--|----------------|-------------------|
|-4--4-4-(4)--4--|-7--7-7-(7)--7--|-9--9-9-(9)--9--|-7--7--7-(7)---7---|
|-4--4-4-(4)--4--|-7--7-7-(7)--7--|-9--9-9-(9)--9--|-7--7--7-(7)---7---|
|-2--2-2-(2)--2--|-5--5-5-(5)--5--|-7--7-7-(7)--7--|-5--5--5-(5)---5---|
|----------------|----------------|----------------|-------------------|
|
| Gtr II (Dist)
| Q  Q    Q   Q    Q  Q    Q   Q    Q  E E +Q   Q    Q  E  E  E  E E E
|----------------|----------------|----------------|-------------------|
|----------------|----------------|----------------|-------------------|
|----6----7---6--|-4--6----7---6--|-9--9-9-(9)--9--|-7--7-11-11--7-7-7-|
|----------------|----------------|----------------|-------------------|
|----4----5---4--|-2--4----5---4--|-7--7-7-(7)--7--|-5--5--9--9--5-5-5-|
|----------------|----------------|----------------|-------------------|


 Pre-Chorus        Chorus 2
                   3/4
  Gtr I (Dist)     Gtr I (Clean)
  E E E E E E E E    E  E  E  E  Q     E  E  E  E  Q     E  E  E  E  Q
|-----------------|-----------------|-----------------|-----------------|
|-----------------|-14-12-10-12-10--|-14-12-10-12-10--|-14-12-10-12-10--|
|-9-9-9-9-9-9-9-9-|-----------------|-----------------|-----------------|
|-9-9-9-9-9-9-9-9-|-----------------|-----------------|-----------------|
|-7-7-7-7-7-7-7-7-|-----------------|-----------------|-----------------|
|-7-7-7-7-7-7-7-7-|-----------------|-----------------|-----------------|
|
| Gtr II (Dist)
| E E E E E E E E    W                 W                 W
|-----------------|-----------------|-----------------|-----------------|
|-----------------|-----------------|-----------------|-----------------|
|-9-9-9-9-9-9-9-9-|-----------------|-----------------|-----------------|
|-9-9-9-9-9-9-9-9-|-----------------|-----------------|-----------------|
|-7-7-7-7-7-7-7-7-|-----------------|-----------------|-----------------|
|-7-7-7-7-7-7-7-7-|-----------------|-----------------|-----------------|


  Gtr I (Clean)
   E  E  E  E  Q     E  E  E  E  Q     E  E  E  E  Q
|-----------------|-----------------|-----------------|
|-14-12-10-12-10--|-14-12-10-12-10--|-14-12-10-12-10--|
|-----------------|-----------------|-----------------|
|-----------------|-----------------|-----------------|
|-----------------|-----------------|-----------------|
|-----------------|-----------------|-----------------|


   E  E  E  E  Q     E  E  E  E  E  E
|-----------------|--------------------|
|-14-12-10-12-10--|-14-12-10-12-10-12--|
|-----------------|--------------------|
|-----------------|--------------------|
|-----------------|--------------------|
|-----------------|--------------------|


  Gtr I (Clean)
   E  E  E  E  Q     E  E  +E   E  +E  E
|-----------------|----------------------|
|-14-12-10-12-10--|-12-10-(10)-----------|
|-----------------|------------10-(10)-9-|
|-----------------|----------------------|
|-----------------|----------------------|
|-----------------|----------------------|


          Bridge
 2/4      3/4
           Gtr I (Dist)
  +H        E  E  E  E  E E    E  E  E  E  E E
|--------|------------------|-------------------|
|--------|------------------|-------------------|
|-(9)----|--6--6--6--6--6-6-|--6--6-------------|
|--------|--6--6--6--6--6-6-|--6--6--2--2--2-2--|
|--------|--4--4--4--4--4-4-|--4--4--2--2--2-2--|
|--------|------------------|--------0--0--0-0--|
|
|          Gtr II (Dist)
|  W        E  E  E  E  Q      E  E  E  E  Q
|--------|------------------|-------------------|
|--------|-14-12-10-12-10---|-14-12-10-12-10----|
|--------|------------------|-------------------|
|--------|------------------|-------------------|
|--------|------------------|-------------------|
|--------|------------------|-------------------|


  Gtr I (Dist)
   E  E  E  E  E E    E  E  E  E  E E
|------------------|------------------|
|------------------|------------------|
|------------------|------------------|
|--2--2--2--2--3-3-|--3--3--3--3--3-3-|
|--2--2--2--2--3-3-|--3--3--3--3--3-3-|
|--0--0--0--0--1-1-|--1--1--1--1--1-1-|
|
| Gtr II (Dist)
|  E  E  E  E  Q      E  E  E  E  Q
|------------------|------------------|
|-14-12-10-12-10---|-14-12-10-12-10---|
|------------------|------------------|
|------------------|------------------|
|------------------|------------------|
|------------------|------------------|


   E  E  E  E  E E    E  E  E  E  E E    E  E  E  E  E E
|------------------|------------------|-------------------|
|------------------|------------------|-------------------|
|--2--2--2--2--2-2-|--2--2--6--6--6-6-|--6--6--6--6-------|
|--2--2--2--2--2-2-|--2--2--6--6--6-6-|--6--6--6--6--2-2--|
|--0--0--0--0--0-0-|--0--0--4--4--4-4-|--4--4--4--4--2-2--|
|------------------|------------------|--------------0-0--|
|
|  E  E  E  E  Q      E  E  E  E  Q      E  E  E  E  Q
|------------------|------------------|-------------------|
|-14-12-10-12-10---|-14-12-10-12-10---|-14-12-10-12-10----|
|------------------|------------------|-------------------|
|------------------|------------------|-------------------|
|------------------|------------------|-------------------|
|------------------|------------------|-------------------|


                                                               2/4
  Gtr I (Dist)
   E  E  E  E  E E    E  E  E  E  E E    E  E   E   E  E   E     E  E   E  E
|------------------|------------------|-----------------------|--------------|
|------------------|------------------|-----------------------|--------------|
|------------------|------------------|-----------------------|--------------|
|--2--2--2--2--2-2-|--3--3--3--3--3-3-|--3--3---3---3--3---3--|--3--3---3--3-|
|--2--2--2--2--2-2-|--3--3--3--3--3-3-|--3--3---3---3--3---3--|--3--3---3--3-|
|--0--0--0--0--0-0-|--1--1--1--1--1-1-|--1--1---1---1--1---1--|--1--1---1--1-|
|
| Gtr II (Dist)
|  E  E  E  E  Q      E  E  E  E  Q      E  E  +E   E  E  +E     E  E  +Q
|------------------|------------------|-----------------------|--------------|
|-14-12-10-12-10---|-14-12-10-12-10---|-12-10-(10)-12-10-(10)-|-12-10-(10)---|
|------------------|------------------|-----------------------|--------------|
|------------------|------------------|-----------------------|--------------|
|------------------|------------------|-----------------------|--------------|
|------------------|------------------|-----------------------|--------------|


 Breakdown
 4/4
  Gtr I (Dist)
  E  E  +E  E  E  +E  E  E    +E  E  E  +E  E  E  +E  E
|--------------------------|----------------------------|
|--------------------------|----------------------------|
|-9-11-(11)-9-11-(11)-9-11-|-(11)-9-11-(11)-9-11-(11)-9-|
|--------------------------|----------------------------|
|--------------------------|----------------------------|
|--------------------------|----------------------------|
|
| Gtr II (Dist)
| E  E   E  E  E   E  E  E     E  E  E   E  E  E   E  E
|--------------------------|----------------------------|
|-7--7---7--7--7---7--7--7-|--\5--5--5---5--5--5---5--5-|
|--------------------------|----------------------------|
|--------------------------|----------------------------|
|--------------------------|----------------------------|
|--------------------------|----------------------------|
|
| Strings arr. guitar
| H            Q      Q        H            Q      Q
|--------------7-----------|----------------5-----------|
|--------------------------|----------------------------|
|--------------------------|----------------------------|
|--------------------------|----------------------------|
|--------------------------|----------------------------|
|--------------------------|----------------------------|


   E  +E  E  E  +E  E  E  +E
|-----------------------------|
|-----------------------------|
|-11-(11)-9-11-(11)-9-11-(11)-|
|-----------------------------|
|-----------------------------|
|-----------------------------|
|
|  E   E  E  E   E  E  E   E
|-----------------------------|
|--2---2--2--2---2--2--2---2--|
|-----------------------------|
|-----------------------------|
|-----------------------------|
|-----------------------------|
|
|  H             Q         Q
|---------------17------------|
|-----------------------------|
|-----------------------------|
|-----------------------------|
|-----------------------------|
|-----------------------------|


  Gtr I (Dist)
  E  E  +E  E  E  +E  Q    E  E  +E  E  E  +E  E  E
|------------------------|--------------------------|
|------------------------|--------------------------|
|-9-11-(11)-9-11-(11)----|-9-11-(11)-9-11-(11)-9-11-|
|------------------------|--------------------------|
|------------------------|--------------------------|
|------------------------|--------------------------|
|
| Gtr II (Dist)
| E  E   E  E  E   E  Q    Q     +E  E     +Q  E  E
|------------------------|--------------------------|
|-3--3---3--3--3---2-----|-7-----(7)-7-----(7)-7--7-|
|---------------------2--|--------------------------|
|------------------------|--------------------------|
|------------------------|--------------------------|
|------------------------|--------------------------|
|
| Strings
| H            Q      Q    H            Q      Q
|-------------16---------|--------------7-----------|
|------------------------|--------------------------|
|------------------------|--------------------------|
|------------------------|--------------------------|
|------------------------|--------------------------|
|------------------------|--------------------------|


   +E  E   E   +E  E   E   +E  E    E  +E  E  E  +E  E  E  +E
|--------------------------------|-----------------------------|
|--------------------------------|-----------------------------|
|-(11)-9-[11]-(11)-9-[11]-(11)-9-|-11-(11)-9-11-(11)-9-11-(11)-|
|--------------------------------|-----------------------------|
|--------------------------------|-----------------------------|
|--------------------------------|-----------------------------|
|
|   E  E   E    E  E   E    E  E    E   E  E  E   E  E  E   E
|--------------------------------|-----------------------------|
|---5--5---5----5--5---5----5--5-|--2---2--2--2---2--2--2---2--|
|--------------------------------|-----------------------------|
|--------------------------------|-----------------------------|
|--------------------------------|-----------------------------|
|--------------------------------|-----------------------------|
|
|   H              Q        Q       H             Q     Q
|------------------5-------------|---------------17------------|
|--------------------------------|-----------------------------|
|--------------------------------|-----------------------------|
|--------------------------------|-----------------------------|
|--------------------------------|-----------------------------|
|--------------------------------|-----------------------------|


  Gtr I (Dist)
  E  E  +E  E  E  +E  Q    E  E  +E  E  E  +E   E    E
|------------------------|------------------------------|
|------------------------|------------------------------|
|-9-11-(11)-9-11-(11)----|-9-11-(11)-9-11-(11)-[9]-[11]-|
|------------------------|------------------------------|
|------------------------|------------------------------|
|------------------------|------------------------------|
|
| Gtr II (Dist)
| E  E   E  E  E   E  Q    E  E  +E  E  E  +E   E    E
|------------------------|------------------------------|
|-3--3---3--3--3---2-----|-7--7--(7)-7--7--(7)--7----7--|
|---------------------2--|------------------------------|
|------------------------|------------------------------|
|------------------------|------------------------------|
|------------------------|------------------------------|
|
| Strings
| H            Q      Q    H            Q       Q
|-------------16---------|--------------7---------------|
|------------------------|------------------------------|
|------------------------|------------------------------|
|------------------------|------------------------------|
|------------------------|------------------------------|
|------------------------|------------------------------|


   +E   E   E  +E  E  E  +E  E    E  +E  E  E  +E  E  E  +E
|------------------------------|-----------------------------|
|------------------------------|-----------------------------|
|-(11)-[9]-11-(11)-9-11-(11)-9-|-11-(11)-9-11-(11)-9-11-(11)-|
|------------------------------|-----------------------------|
|------------------------------|-----------------------------|
|------------------------------|-----------------------------|
|
|   E   E   E   E  E  E   E  E    E   E  E  E   E  E  E   E
|------------------------------|-----------------------------|
|---5---5---5---5--5--5---5--5-|--2---2--2--2---2--2--2---2--|
|------------------------------|-----------------------------|
|------------------------------|-----------------------------|
|------------------------------|-----------------------------|
|------------------------------|-----------------------------|
|
|   H              Q      Q       H             Q     Q
|------------------5-----------|---------------17------------|
|------------------------------|-----------------------------|
|------------------------------|-----------------------------|
|------------------------------|-----------------------------|
|------------------------------|-----------------------------|
|------------------------------|-----------------------------|


  Gtr I (Dist)
  E  E  +E  E  E  +E  Q    E  E  +E  E  E  +E  E  E
|------------------------|--------------------------|
|------------------------|--------------------------|
|-9-11-(11)-9-11-(11)----|-9-11-(11)-9-11-(11)-9-11-|
|------------------------|--------------------------|
|------------------------|--------------------------|
|------------------------|--------------------------|
|
| Gtr II (Dist)
| E  E   E  E  E   E  Q    E  E  +E  E  E  +E  E  E
|------------------------|--------------------------|
|-3--3---3--3--3---2-----|-7--7--(7)-7--7--(7)-7--7-|
|---------------------2--|--------------------------|
|------------------------|--------------------------|
|------------------------|--------------------------|
|------------------------|--------------------------|
|
| Strings
| H            Q      Q    H            Q      Q
|-------------16---------|--------------7-----------|
|------------------------|--------------------------|
|------------------------|--------------------------|
|------------------------|--------------------------|
|------------------------|--------------------------|
|------------------------|--------------------------|


   +E  E  E  +E  E  E  +E  E    E  +E  E  E  +E  E  E  +E
|----------------------------|-----------------------------|
|----------------------------|-----------------------------|
|-(11)-9-11-(11)-9-11-(11)-9-|-11-(11)-9-11-(11)-9-11-(11)-|
|----------------------------|-----------------------------|
|----------------------------|-----------------------------|
|----------------------------|-----------------------------|
|
|   E  E  E   E  E  E   E  E    E   E  E  E   E  E  E   E
|----------------------------|-----------------------------|
|---5--5--5---5--5--5---5--5-|--2---2--2--2---2--2--2---2--|
|----------------------------|-----------------------------|
|----------------------------|-----------------------------|
|----------------------------|-----------------------------|
|----------------------------|-----------------------------|
|
|   H            Q      Q       H             Q     Q
|----------------5-----------|---------------17------------|
|----------------------------|-----------------------------|
|----------------------------|-----------------------------|
|----------------------------|-----------------------------|
|----------------------------|-----------------------------|
|----------------------------|-----------------------------|


                           Outro
  Gtr I (Dist)             Gtr I (Clean)
  E  E  +E  E  E  +E    Q    E  E  E  E  E  E E  E
|-------------------------|-------------------9-12-|
|-------------------------|-------10----12---------|
|-9-11-(11)-9-11-(11)-----|--9h11----11----11------|
|-------------------------|------------------------|
|-------------------------|------------------------|
|-------------------------|------------------------|
|
| Gtr II (Dist)              Strings
| E  E   E  E  E   E  Q      W
|-------------------------|------------------------|
|-3--3---3--3--3---2------|------------------------|
|---------------------2---|-11---------------------|
|-------------------------|------------------------|
|-------------------------|------------------------|
|-------------------------|------------------------|
|
| Strings                    
| H            Q      Q      
|-------------16----------|
|-------------------------|
|-------------------------|
|-------------------------|
|-------------------------|
|-------------------------|

  E  E  E  E E  E  E  E    E  E E  E  E  E  E E
|-----------------------|-------9-10-12---------|
|------10---------10----|-12-10---------12-10-9-|
|-9h11----11-9h11----11-|-----------------------|
|-----------------------|-----------------------|
|-----------------------|-----------------------|
|-----------------------|-----------------------|
|
| W                        W
|-----------------------|-----------------------|
|-----------------------|-----------------------|
|-9---------------------|--6--------------------|
|-----------------------|-----------------------|
|-----------------------|-----------------------|
|-----------------------|-----------------------|
|
| W                        W
|-----------------------|-----------------------|
|-----------------------|-----------------------|
|-----------------------|-----------------------|
|-----------------------|-----------------------|
|-----------------------|-----------------------|
|-----------------------|-----------------------|


  Gtr I (Clean)
  E  E  E  E  E  E E  E    E  E  E  E E  E  E  E
|------------------9-12-|------------------------|
|------10----12---------|-------10---------10----|
|-9h11----11----11------|--9h11----11-9h11----11-|
|-----------------------|------------------------|
|-----------------------|------------------------|
|-----------------------|------------------------|
|
| Strings
| W                        W
|-----------------------|------------------------|
|-----------------------|------------------------|
|-4---------------------|-11---------------------|
|-----------------------|------------------------|
|-----------------------|------------------------|
|-----------------------|------------------------|
|
| Horns arr. guitar
| W                        H          Q     Q
|-----------------------|------------------------|
|-----------------------|------------------10----|
|-----------------------|------------------------|
|-----------------------|------------------------|
|-----------------------|------------------------|
|-----------------------|------------------------|


   E  E E  E  E  E  E E   E  E  E  E  E  E E  E
|-------9-10-12---------|------------------9-12-|
|-12-10---------12-10-9-|------10----12---------|
|-----------------------|-9h11----11----11------|
|-----------------------|-----------------------|
|-----------------------|-----------------------|
|-----------------------|-----------------------|
|
|  W                      W
|-----------------------|-----------------------|
|-----------------------|-----------------------|
|--9--------------------|-6---------------------|
|-----------------------|-----------------------|
|-----------------------|-----------------------|
|-----------------------|-----------------------|
|
|  Q    H           Q     Q     H          Q
|-----------------------|-----------------------|
|--9----5-----------9---|-7-----2----------7----|
|-----------------------|-----------------------|
|-----------------------|-----------------------|
|-----------------------|-----------------------|
|-----------------------|-----------------------|


  Gtr I (Clean)
  E  E  E  E E  E  E  E    E  E E  E  E  E  E E
|-----------------------|-------9-10-12---------|
|------10---------10----|-12-10---------12-10-9-|
|-9h11----11-9h11----11-|-----------------------|
|-----------------------|-----------------------|
|-----------------------|-----------------------|
|-----------------------|-----------------------|
|
| Strings
| W                        W
|-----------------------|-----------------------|
|-----------------------|-----------------------|
|-4---------------------|-11--------------------|
|-----------------------|-----------------------|
|-----------------------|-----------------------|
|-----------------------|-----------------------|
|
| Horns
| H          H             H          Q     Q
|-----------------------|-----------------------|
|-5----------0----------|------------------10---|
|-----------------------|-----------------------|
|-----------------------|-----------------------|
|-----------------------|-----------------------|
|-----------------------|-----------------------|


  E  E  E  E  E  E E  E   E  E  E  E E  E  E  E
|------------------9-12-|-----------------------|
|------10----12---------|------10---------10----|
|-9h11----11----11------|-9h11----11-9h11----11-|
|-----------------------|-----------------------|
|-----------------------|-----------------------|
|-----------------------|-----------------------|
|
| W                       W
|-----------------------|-----------------------|
|-----------------------|-----------------------|
|-9---------------------|-6---------------------|
|-----------------------|-----------------------|
|-----------------------|-----------------------|
|-----------------------|-----------------------|
|
| Q     H          Q      Q     H          Q
|-----------------------|-----------------------|
|-9-----5----------9----|-7-----2----------7----|
|-----------------------|-----------------------|
|-----------------------|-----------------------|
|-----------------------|-----------------------|
|-----------------------|-----------------------|


  Gtr I (Clean)
   E  E E  E  E  E  E E    E  E  E  E  E  E  E  E
|-------9-10-12---------|--------------------9-12-|
|-12-10---------12-10-9-|-------10----12----------|
|-----------------------|--9h11----11----11-------|
|-----------------------|-------------------------|
|-----------------------|-------------------------|
|-----------------------|-------------------------|
|
| Strings
|  W                       W
|-----------------------|-------------------------|
|-----------------------|-------------------------|
|--4--------------------|-11----------------------|
|-----------------------|-------------------------|
|-----------------------|-------------------------|
|-----------------------|-------------------------|
|
| Horns
|  H          H            H           Q     Q
|-----------------------|-------------------------|
|--5----------0---------|-------------------10----|
|-----------------------|-------------------------|
|-----------------------|-------------------------|
|-----------------------|-------------------------|
|-----------------------|-------------------------|


  E  E  E  E E  E  E  E    E  E E  E  E  E  E E
|-----------------------|-------9-10-12---------|
|------10---------10----|-12-10---------12-10-9-|
|-9h11----11-9h11----11-|-----------------------|
|-----------------------|-----------------------|
|-----------------------|-----------------------|
|-----------------------|-----------------------|
|
| W                        W
|-----------------------|-----------------------|
|-----------------------|-----------------------|
|-9---------------------|--6--------------------|
|-----------------------|-----------------------|
|-----------------------|-----------------------|
|-----------------------|-----------------------|
|
| Q     H          Q       Q    H           Q
|-----------------------|-----------------------|
|-9-----5----------9----|--7----2-----------7---|
|-----------------------|-----------------------|
|-----------------------|-----------------------|
|-----------------------|-----------------------|
|-----------------------|-----------------------|


  Gtr I (Clean)
  E  E  E  E  E  E  E  E    W          W          W
|------------------------|-----------|----------|------*|
|------10----12----10----|-----------|----------|------*|
|-9h11----11----11----11-|-11--------|-6--------|-2----*|
|------------------------|-----------|----------|------*|
|------------------------|-----------|----------|------*|
|------------------------|-----------|----------|------*|
|
| Strings
| W                         W          W          W
|------------------------|-----------|----------|------*|
|------------------------|-----------|----------|------*|
|-4----------------------|-----------|----------|------*|
|------------------------|-----------|----------|------*|
|------------------------|-----------|----------|------*|
|------------------------|-----------|----------|------*|
|
| Horns
| H           H             W          W          W
|------------------------|-----------|----------|------*|
|-5-----------0----------|-----------|----------|------*|
|------------------------|-----------|----------|------*|
|------------------------|-----------|----------|------*|
|------------------------|-----------|----------|------*|
|------------------------|-----------|----------|------*|


Duration Legend
---------------
W - whole; H - half; Q - quarter; E - 8th; S - 16th; T - 32nd; X - 64th; a - acciaccatura
+ - note tied to previous; . - note dotted; .. - note double dotted
Uncapitalized letters represent notes that are staccato (1/2 duration)
Irregular groupings are notated above the duration line
Duration letters will always appear directly above the note/fret number it represents the
duration for.  Duration letters with no fret number below them represent rests.  Multi-
bar rests are notated in the form Wxn, where n is the number of bars to rest for.  Low
melody durations appear below the staff

Tablature Legend
----------------
 h   - hammer-on
 p   - pull-off
 b   - bend
 pb  - pre-bend
 r   - bend release (if no number after the r, then release immediately)
 /\  - slide into or out of (from/to "nowhere")
 s   - legato slide
 S   - shift slide
  - natural harmonic
[n]  - artificial harmonic
n(n) - tapped harmonic
 ~   - vibrato
 tr  - trill
 T   - tap
 TP  - trem. picking
 PM  - palm muting
\n/  - tremolo bar dip; n = amount to dip
 \n  - tremolo bar down
 n/  - tremolo bar up
/n\  - tremolo bar inverted dip
 =   - hold bend; also acts as connecting device for hammers/pulls
   - volume swell (louder/softer)
 x   - on rhythm slash represents muted slash
 o   - on rhythm slash represents single note slash

Misc Legend
-----------
 |  - bar
||  - double bar
||o - repeat start
o|| - repeat end
*|  - double bar (ending)
 :  - bar (freetime)
 $  - Segno
 &  - Coda
Tempo markers -  = BPM(8/16=s8/s16), where s8 = swing 8ths, s16 = swing 16ths


***************************************************************************************
***************************************************************************************





Comments


Popular Superchunk tabs & chords
1,000 Pounds Chords
Digging For Something Chords
Misfits And Mistakes Chords
This Summer Chords
Good Dreams Tabs
New Low Tabs
The First Part Tabs
Throwing Things Tabs
Home At Dawn Ukulele
Misfits And Mistakes Ukulele


Song lyrics



↑ Back to top | Tablatures and chords are parodies/interpretations of the original songs. You may use it for private study, scholarship, research or language learning purposes only
© 2014 AZChords.com Contact us | Privacy policy | DMCA | Add/correct tabs | Request tabs | Top 50 tabs