>
 >
Cursed Mirror

Cursed Mirror Guitar Tabs

Superchunk - Cursed Mirror chords, tabs, tablatures, lyrics

Guitar lessons | Add/correct | Request | Top 50 tabs Artists:  A B C D E F G H I J K L M N O P Q R S T U V W X Y Z 0-9

Cursed Mirror Guitar Tabs – Superchunk

CD, Sheet music, Poster

Do you like Cursed Mirror? Share with your friends now
Tabs
-------------------------------------------------------------------------------
-------------------------------------------------------------------------------


intro solo:

e|-12-12------12--12---------12-12------12--12-------12-12-------11---14--12-|
B|--------12-----------12-----------12-----------12----------12--------------|
G|---------------------------------------------------------------------------|
D|---------------------------------------------------------------------------|
A|---------------------------------------------------------------------------|
E|---------------------------------------------------------------------------|

e|-------12--9--------9------------------9-----------------------------------|
B|--12-----------10------12--10--12--10-----12--10-12--10-9------------------|
G|-----------------------------------------------------------11--9--11-------|
D|---------------------------------------------------------------------------|
A|---------------------------------------------------------------------------|
E|---------------------------------------------------------------------------|

e|---------------------------------------------------------------------------|
B|-9-----------------------------9-------------------------------------------|
G|-11b12r11--11p9------------9---11b12---------------------------------------|
D|-----------------11-9-11---------------------------------------------------|
A|---------------------------------------------------------------------------|
E|---------------------------------------------------------------------------|

Rhythm guitar (intro + verse)

(intro)
e|-4-4-4--5---7-7-7-7---9-9-9---7-7-7-----4-4-4--5---7-7-7-7---9-9-9---7-7-7|
B|-5-5-5--5---7-7-7-7---9-9-9---7-7-7-----5-5-5--5---7-7-7-7---9-9-9---7-7-7|
G|-4-4-4--4---6-6-6-6---9-9-9---6-6-6-----4-4-4--4---6-6-6-6---9-9-9---6-6-6|
D|---------------------------------------------------------------------------|
A|---------------------------------------------------------------------------|
E|---------------------------------------------------------------------------|

(verse rhythm gtr goes something like this...)
e|4-4-4--5---7-7-7-7---9-9-9---7-7-7---4-4-4--5---2-2-2-2---4---0------------|
B|5-5-5--5---7-7-7-7---9-9-9---7-7-7---5-5-5--5---3-3-3-3---3---0------------|
G|4-4-4--4---6-6-6-6---9-9-9---6-6-6---4-4-4--4---4-4-4-4---4---1------------|
D|--------------------------------------------------------------2------------|
A|---------------------------------------------------------------------------|
E|---------------------------------------------------------------------------|

Verse

E Esus4  B    C#m   B

E Esus4  F#m   A    E

Chorus

F#m    A   B    E
F#m    A   B    E
F#m    A   B    E
F#m    A   B    E


B               E Esus4 B
Fair skinned or pale    translucent

C#m                        B                     E
Still I don't(?) see right through you more than once

Esus4    F#m            A                E
But it's frightening to see the shape of you


E                        Esus4   B
And now you're knee deep in this suckin' mud 

          C#m                B
won't you toss me your glove again 

                 E           Esus4 F#m            A    E
You've worn this hair before last summer dancing    (hoo hoo hoo)




    F#m       A    B       E
The mirror gets cursed (hoo hoo hoo)

    F#m       A    B       E
For what's reflected (hoo hoo hoo)

    F#m       A    B       E
So you're disconnected (hoo hoo hoo)

    F#m       A    B       E
Well you're disconnected




B          E          Esus4   B
Now you're wrapped up like an onion in layers 

C#m                   B
sucking on things and shakin'

             E     Esus4     F#m               A    E
Points I can feel you a funny elbow in my side


       E       Esus4 B   
But in real life my  calls go on, follow 

C#m                  B
medicine swallowed in secret

          E       Esus4 
You can't beat it 

         F#m                      A        E
when the ports of your demise are correct    (hoo hoo hoo)




    F#m       A    B       E
The mirror gets cursed (hoo hoo hoo)

    F#m       A    B       E
For what's reflected (hoo hoo hoo)

    F#m       A    B       E
So you're disconnected (hoo hoo hoo)

    F#m       A    B       E
Well you're disconnected

(acoustic solo)


    E       Esus4 B  
Now enforcing the issue 

C#m                         B
wrapping loose ends in your tissue


         E     Esus4  F#m                  A        E
When you rain, you'll reappear won't you? (hoo hoo hoo)



    F#m       A    B       E
The mirror gets cursed (hoo hoo hoo)

    F#m       A    B       E
For what's reflected (hoo hoo hoo)

    F#m       A    B       E
So you're disconnected (hoo hoo hoo)

    F#m       A    B       E
you're disconnected


    F#m       A    B       E
And it only gets worse (hoo hoo hoo)

    F#m       A    B       E
When you know you wrecked it (hoo hoo hoo)

    F#m       A    B       E
So you're disconnected 


| /  slide up
| \  slide down
| h  hammer-on
| p  pull-off
| ~  vibrato
| +  harmonic
| x  Mute note
===============================================================================





Comments


Popular Superchunk tabs & chords
Digging For Something Chords
Hyper Enough Chords
Driveway To Driveway Tabs
From The Curve Tabs
Hello Hawk Tabs
My Noise Tabs
Slack Motherfucker 1 Tabs
White Noise Tabs
Detroit Has A Skyline Ukulele
Hot Tubes Ukulele


Song lyrics



↑ Back to top | Tablatures and chords are parodies/interpretations of the original songs. You may use it for private study, scholarship, research or language learning purposes only
© 2014 AZChords.com Contact us | Privacy policy | DMCA | Add/correct tabs | Request tabs | Top 50 tabs