» » »

Crossed Wires Tabs (ver.1)

Artists:  A B C D E F G H I J K L M N O P Q R S T U V W X Y Z # 

Crossed Wires Tabs (ver.1)

Superchunk
Rating:
5/5 (1 vote)

Hard to play? Try these video lessons and learn fast.
                -------------------------------------------------------------------------------
-------------------------------------------------------------------------------

Tuning:

riff
    D                          G   

e|--------------------------------------------------------------|
B|--------------------------------------------------------------|
G|--7--9---11---9--7--7--9-9p7-7----9---11---9--7--9-9-9--------|
D|--7--7---7----7--7--7--7-7---7----7---7----7--7--7-7-7-repeat-|
A|--0--0---0----0--0--0--------10---10--10---10-10-10-----------|
E|--------------------------------------------------------------|

   Em                        F#m                    Em  A

e|--------------------------------------------------------------|
B|--------------------------------------------------------------|
G|--7--9---11---9--7---9-9p7-7---11--9--7--9-9-9----------------|
D|--9--9---9----9--9---7-7---9---9---9--9--9-9-9-repeat-Em bit--|
A|--7--7---7----7--7---------9---9---9--9--9-9-9----------------|
E|--------------------------------------------------------------|

Jim's verse bit:

e|--------------------------------------|
B|--------3---3---5---3-----------------|
G|--2--4----4------------4---x2---------|
D|--------------------------------------|
A|--------------------------------------|
E|--------------------------------------|

D                    Em
I went out, felt the sun on my face
D				Em
Then a tug on my leg and now I'm back in the cave
D				Em
There's a moment of peace that I just can't recreate
A		       G
I need sleep, but my brain won't get tired
A			G
I smell like smoke from electrical fires

D (let ring)			 G	    	 A
Don't touch me ('cause) I've got crossed wires...crossed wires
D				G		A
Keep your hands free, I've got crossed wires...crossed wires
D
Crossed wires, Crossed wires
G		A
Crossed wires, Crossed wires
Em		G, A
Crossed wires

A day like this, we should be out on the road
With the sky so clear and the air so cold
There's blankets in the back, bundle up my little urchin
'Cause we never got the heat working
No, we never got the heat working

D, Bm, A#, Em, A
Collecting the notes you slipped under the door
D, Bm, A#, Em, A
I go blank when I try to remember what we were good for
D, Bm, A#, Em, A
I'm cracked, I'm crossed and it's no way to be
D, Bm, A#, Em, F#, G, Em, F#, G
Let's just get lost and maybe it will come back to me...back to me





************************************

| /   slide up
| \   slide down
| h   hammer-on
| p   pull-off
| ~   vibrato
| +   harmonic
| x   Mute note
| b   Bend
| pb  Pre-bend
| br  Bend release
| pbr Pre-bend release
| brb Bend release bend

************************************
            
Hard to play? Try these video lessons and learn fast. | Correct




comments powered by Disqus
↑ Back to top | Tablatures and chords are parodies/interpretations of the original songs. You may use it for private study, scholarship, research or language learning purposes only