>
 >
Cross The Line

Cross The Line Guitar Tabs

Superchick - Cross The Line chords, tabs, tablatures, lyrics

Guitar lessons | Add/correct | Request | Top 50 tabs Artists:  A B C D E F G H I J K L M N O P Q R S T U V W X Y Z 0-9

Cross The Line Guitar Tabs – Superchick

CD, Sheet music, Poster

Do you like Cross The Line? Share with your friends now
ChordsChords v2TabsUkulele
------------------------------------------------
------------------------------------------------

Track #08
Drop D Tuning

Verse 1:   r= 11th fret
e|------------------|
B|------------------|
G|------------------|
D|--r--88888--8-8---| x2
A|--r--88888--8-8---|
D|--r--88888--8-8---|
    *  *****  * *

e|----------------------------------|
B|----------------------------------|
G|----------------------------------|
D|--r-88888--88-8-8--rr-88888--xxx--|
A|--r-88888--88-8-8--rr-88888--xxx--|
D|--r-88888--88-8-8--rr-88888--xxx--|
    * *****  ** * *  ** *****
 
e|---------------------|
B|---------------------|
G|---------------------|
D|--r-88888--88-8-8-r--| x3
A|--r-88888--88-8-8-r--|
D|--r-88888--88-8-8-r--|

e|--------------------------|
B|--------------------------|
G|--------------------------|
D|--r-88888-88-8-8-8\--xxx--|
A|--r-88888-88-8-8-8\--xxx--|
D|--r-88888-88-8-8-8\--xxx--|

Chorus:   w= 13th fret
e|----------------------------------------|
B|----------------------------------------|
G|----------------------------------------|
D|--8-----4-----w------8-----4-----6------|
A|--8-x8--4-x8--w-x16--8-x8--4-x8--6-x16--|
D|--8-----4-----w------8-----4-----6------|

Post-Chorus:
e|----------------------------------------|
B|----------------------------------------|
G|----------------------------------------|
D|--8888-6--rrrrr-w-w--8888-6--rrrrr-6-6--|
A|--8888-6--rrrrr-w-w--8888-6--rrrrr-6-6--|
D|--8888-6--rrrrr-w-w--8888-6--rrrrr-6-6--|

e|---------------------------------|
B|---------------------------------|
G|---------------------------------|
D|--8888-6--rrrrr-w-w--6-----7-----|
A|--8888-6--rrrrr-w-w--6-x8--7-x8--|
D|--8888-6--rrrrr-w-w--6-----7-----|

e|-------------------------------------|
B|-------------------------------------|
G|-------------------------------------|
D|--8-8-8-8-8-8-8-8-6-8-8-8-8-8-8-8-8--|
A|----8---8---8---8-6---8---8---8---8--|
D|----8---8---8---8-6---8---8---8---8--|

Verse 2:
e|-----------------------|    |-------------|
B|-----------------------|    |-------------|
G|-----------------------|    |-------------|
D|--8-88-8-8-8-88-8-8-6--| x3 |--8\--x-x-x--|
A|----88---8---88---8-6--|    |--8\--x-x-x--|
D|----88---8---88---8-6--|    |--8\--x-x-x--|

e|------------------------------------|
B|------------------------------------|
G|------------------------------------|
D|--88-888-888-8-rr--88-888-888-8-66--|
A|--88-888-888-8-rr--88-888-888-8-66--|
D|--88-888-888-8-rr--88-888-888-8-66--|

e|--------------------------------------------|
B|--------------------------------------------|
G|-------------------------------66-55-66-33--|
D|--88-888-888-8-rr--4-----6-----xx-xx-xx-xx--|
A|--88-888-888-8-rr--4-x8--6-x8--44-33-44-11--|
D|--88-888-888-8-rr--4-----6------------------|

Chorus:   
e|----------------------------------------|
B|----------------------------------------|
G|----------------------------------------|
D|--8-----4-----w------8-----4-----6------|
A|--8-x8--4-x8--w-x16--8-x8--4-x8--6-x16--|
D|--8-----4-----w------8-----4-----6------|

Bridge:
e|--------------------------------------------|
B|--------------------------------------------|
G|--------------------------------------------|
D|--8-8p6-8-8-8-x-8p6-8-8-8-x-8p6-8-8-8-x-67--| x2
A|--8-------8-8-x-------8-8-x-------8-8-x-67--|
D|--8-------8-8-x-------8-8-x-------8-8-x-67--|

e|--------------------------------------------|
B|--------------------------------------------|
G|------------------------8---------8---------|
D|--8-8p6-8-8-4-x-8p6-8-4-8-x-8p6-8-8-8-x-67--|
A|--8-------8-4-x-------4-6-x-------6---x-67--|
D|--8-------8-4-x-------4---x-----------x-67--|

e|---------------------------------------|
B|---------------------------------------|
G|---------------------------------------| bend the last
D|--8-8p6-8-8-4-x-8p6-8-4-------------x--| 6 more with each
A|--8-------8-4-x-------4-6666666666--x--| strum
D|--8-------8-4-x-------4-------------x--|


Chorus:   
e|----------------------------------------|
B|----------------------------------------|
G|----------------------------------------|
D|--8-----4-----w------8-----4-----6------|
A|--8-x8--4-x8--w-x16--8-x8--4-x8--6-x16--|
D|--8-----4-----w------8-----4-----6------|

Outro:
e|----------------------------------------|
B|----------------------------------------|
G|----------------------------------------|
D|--8888-6--rrrrr-w-w--8888-6--rrrrr-6-6--|
A|--8888-6--rrrrr-w-w--8888-6--rrrrr-6-6--|
D|--8888-6--rrrrr-w-w--8888-6--rrrrr-6-6--|

e|-------------------------------------|
B|-------------------------------------|
G|-------------------------------------|
D|--8888-6--rrrrr-w-w--6-----7-----8\--|
A|--8888-6--rrrrr-w-w--6-x8--7-x8--8\--|
D|--8888-6--rrrrr-w-w--6-----7-----8\--|

 _______________________
| Key: r= 11th fret     |
|      w= 13th fret     |
|      \= slide down    |
|      p= pull-off      |
|      x= mute strings  |
|      *= palm mute     |
 \_____________________/

That's it. Feel free to comment and please rate.





Comments


Popular Superchick tabs & chords
We Live Bass Tabs
Courage Chords
Hero 2 Chords
Hold Chords
I Belong To You Chords
One Girl Revolution Chords
One More Chords
Stand In The Rain Chords
Hero Intro Tabs
Get Up Ukulele


Song lyrics



↑ Back to top | Tablatures and chords are parodies/interpretations of the original songs. You may use it for private study, scholarship, research or language learning purposes only
© 2014 AZChords.com Contact us | Privacy policy | DMCA | Add/correct tabs | Request tabs | Top 50 tabs