» » »

Sunrise Avenue, The Right One Chords (ver.1)

Artists:  A B C D E F G H I J K L M N O P Q R S T U V W X Y Z # 

The Right One Chords (ver.1)

Sunrise Avenue Tabs
 Rating:
4.2/5 (5 votes)
The Right One lessons Tabs too difficult? Try these video lessons and learn fast
1
                Update: ! Using Capo in 1 you can play this intro: !

With the capo in 1 you can play the intro like that:

-----------8-------|------10-13-11-----|-11-10-----8-------|------------------|
----------8-11-----|-11-13-------------|-----11------------|------------------|
8-----8-10---------|-------------------|--------8----------|11-10-10-8--------|
-------------------|-------------------|-------------------|------------------|
-------------------|-------------------|-------------------|------------------|
-------------------|-------------------|-------------------|------------------|


-----------8-------|------10-13-11-----|-11-10-----8-------|------10-13-------|
----------8-11-----|-11-13-------------|-----11------------|-11-13------------|
8-----8-10---------|-------------------|--------8----------|------------------|
-------------------|-------------------|-------------------|------------------|
-------------------|-------------------|-------------------|------------------|
-------------------|-------------------|-------------------|------------------|
 

I think it sounds good if you twang the first verse and the first chorus like this:

 D        A        Bm       G
|--------|--------|--------|--------|
|33333333|--------|--------|--------|
|22222222|22222222|44444444|00000000|
|00000000|22222222|44444444|00000000|
|--------|00000000|22222222|--------|
|--------|--------|--------|33333333|


        D                                A
I don't want you around me today, I just said,
         Bm                                                G
'cause I need air I don't wanna share my life with you this way.

         D                                     A
I didn't need to believe that we are something more,
         Bm                                             G
you were just you and we weren't true until you walked away.

D                       A                      Bm
You know it's the right one, when you lose someone
                                Bm                  G  
and you feel so ashamed how you just didn't get it right.           
D                     A                      Bm                     
It's always the right one, when you miss someone
                               Bm                  G
and it hurts like hell and you know you were just blind.

I would break every wall in the world to get you back.
No, I can't sleep but I'm not awake, I'm feeling way too bad.
I can't stand anything that reminds me of you
and I just can't stand my friends anymore,
who say that I'll be OK soon.

You know it's the right one, when you lose someone
and you feel so ashamed how you just didn't get it right.
It's always the right one, when you miss someone
and it hurts like hell and you know you were just blind.

A                Bm                       G
I miss you every day much more than I can say.
A                Bm                    G
I hate the world today, it took you far away.

D        A        Bm       G   (twang again)

3x
You know it's the right one, when you lose someone
and you feel so ashamed how you just didn't get it right.
It's always the right one, when you miss someone
and it hurts like hell and you know you were just blind.

Hope you enjoy,
Greetings,
Rockrad
            
Submit corrections

comments powered by Disqus
↑ Back to top | Sunrise Avenue Chords for The Right One. Lyrics for acoustic guitar and electric guitar. 1 Tablatures and chords are parodies/interpretations of the original songs. You may use it for private study, scholarship, research or language learning purposes only