>
 >
Hollywood Hills 1

Hollywood Hills 1 Guitar Tabs

Sunrise Avenue - Hollywood Hills 1 chords, tabs, tablatures, lyrics

Guitar lessons | Add/correct | Request | Top 50 tabs Artists:  A B C D E F G H I J K L M N O P Q R S T U V W X Y Z 0-9

Hollywood Hills 1 Guitar Tabs – Sunrise Avenue

CD, Sheet music, Poster

Do you like Hollywood Hills 1? Share with your friends now
ChordsChords v2Chords v3Chords v4TabsTabs v2Ukulele

Intro


e|-12--12--12-----10--10---12--12--12-----13--13---|
B|---13--13--13-13--13--13---13--13--13-13--13--13-|
G|-------------------------------------------------|
D|-------------------------------------------------|
A|-------------------------------------------------|
E|-------------------------------------------------|


Now this is not the time or the place for broken hearted

                                                      e|---10--10-|
                                                      B|-12--12---|
                                                      G|----------|
                                                      D|----------|
                                                      A|----------|
                                                      E|----------|
Cause this is the end of the rainbow
                   e|-10----8-8-|
                   B|---12-8-8--|
                   G|-----------|
                   D|-----------|
                   A|-----------|
                   E|-----------|
Where no one can be too said
                e|---|        e|---------12-12-| e|---------|
                B|-6-|        B|-12-13-13------| B|-5-6-6-5-|
                G|---|        G|---------------| G|---------|
                D|---|        D|---------------| D|---------|
                A|---|        A|---------------| A|---------|
                E|---|        E|---------------| E|---------|

No, I don稚 wanna leave but I must keep moving ahead
e|---12--12-|                                    e|---10--10-|               
B|-13--13---|                                    B|-12--12---|
G|----------|                                    G|----------|
D|----------|                                    D|----------|
A|----------|                                    A|----------|
E|----------|                                    E|----------|

Behind the great oceans waves
       e|-13-13-13-13-12-12-12-12-|
       B|-------------------------|
       G|-------------------------|
       D|-------------------------|
       A|-------------------------|
       E|-------------------------|

C                                G
Bye, bye Hollywood Hills I知 gonna
                               Am         
miss you wherever I go I知 gonna
            G                       F
come back to walk these streets again

Bye, bye Hollywood Hills forever



C G Am G   or      e|-12--12--12-----10--10---12--12--12-----13--13---|
                   B|---13--13--13-13--13--13---13--13--13-13--13--13-|
                   G|-------------------------------------------------|
                   D|-------------------------------------------------|
                   A|-------------------------------------------------|
                   E|-------------------------------------------------|


Thank you for the morning walks on the sweet sunset
And for the hot night moments
                         Am
For the fantasy in my bed  
I take a part of you with me now and you won稚 get it back
And a part of me will stay here
You can keep it forever, dear...
                               e|-13-12-13-12-13-12-13-12-|
                               B|-------------------------|
                               G|-------------------------|
                               D|-------------------------|
                               A|-------------------------|
                               E|-------------------------|

F    G
Woowoo


C                                G
Bye, bye Hollywood Hills I知 gonna
                               Am
miss you wherever I go I知 gonna
            G                       F
come back to walk this streets again

Remember that we had fun together


C                            G
Bye, bye Rodeo girls I知 gonna
                              Am
Love you wherever I go I知 gonna
           G                     F
Come back so we can play together

Bye, bye Hollywood Hills forever



C                          G
Long distance love doesn稚 work
                                  Am
All the miles in between getting lonely

No, I don稚 wanna go

I don稚 wanna go


                                
Bye, bye Hollywood Hills I知 gonna
miss you wherever I go I知 gonna
come back to walk these streets again
Bye, bye...



C                                G
Bye, bye Hollywood Hills I知 gonna
                               Am
miss you wherever I go I知 gonna
            G                       F
come back to walk this streets again

Remember that we had fun together


C                            G
Bye, bye Rodeo girls I知 gonna
                               Am
Love you wherever I go I知 gonna
           G                      F
Come back so we can play together

Bye, bye Hollywood Hills forever


C G Am  or 
e|-12--12--12-----10--10---12--12--12-----13--13---|
B|---13--13--13-13--13--13---13--13--13-13--13--13-|
G|-------------------------------------------------|
D|-------------------------------------------------|
A|-------------------------------------------------|
E|-------------------------------------------------|



               G
Hollwood Hills forever
C
yeah

G Am

           G           C
Hollywood Hills forever





Comments


Popular Sunrise Avenue tabs & chords
Fairytale Gone Bad 7 Chords
Hollywood Hills 3 Chords
Into The Blue Chords
Lifesaver 2 Chords
Somebody Help Me Chords
Somebody Help Me 3 Chords
Sweet Symphony Chords
You Gave The Rain Chords
Heal Me Ukulele
Only Ukulele


Song lyrics



↑ Back to top | Tablatures and chords are parodies/interpretations of the original songs. You may use it for private study, scholarship, research or language learning purposes only
© 2014 AZChords.com Contact us | Privacy policy | DMCA | Add/correct tabs | Request tabs | Top 50 tabs