» » »

Sunrise Avenue, Choose To Be Me Tabs (ver.1)

Artists:  A B C D E F G H I J K L M N O P Q R S T U V W X Y Z # 

Choose To Be Me Tabs (ver.1)

Sunrise Avenue Tabs
 Rating:
3.7/5 (6 votes)
Choose To Be Me lessons Tabs too difficult? Try these video lessons and learn fast
1
                made by Fischi117 ;-)
Have Fun!!!!
--------------Sunrise Avenue------------------
--------------Choose to be Me-----------------

[Verse]


e|--------------------------------------|
B|--------------------------------------|
G|----------4-4-4-4---------------------|
D|-6-6-6-6--4-4-4-4--2-2-2-2--4-4-4-4---|    
A|-6-6-6-6--2-2-2-2--2-2-2-2--4-4-4-4---|
E|-4-4-4-4-----------0-0-0-0--2-2-2-2---|

[Chorus]

e|--------------------------------------|
B|--------------------------------------|
G|-4-4-4-4------------------------------|
D|-4-4-4-4--4-4-4-4--6-6-6-6--2-2-2-2---|
A|-2-2-2-2--4-4-4-4--6-6-6-6--2-2-2-2---|     
E|----------2-2-2-2--4-4-4-4--0-0-0-0---|

[Bridge]

e|--------------------------------------|
B|--------------------------------------|
G|-------------------4-4-4-4------------|
D|-6-6-6-6--2-2-2-2--4-4-4-4--4-4-4-4---|
A|-6-6-6-6--2-2-2-2--2-2-2-2--4-4-4-4---|     
E|-4-4-4-4--0-0-0-0-----------2-2-2-2---|

e|--------------------------------------|
B|--------------------------------------|
G|-------------------4-4-4-4--8-8-8-8---|
D|-6-6-6-6--2-2-2-2--4-4-4-4--8-8-8-8---|
A|-6-6-6-6--2-2-2-2--2-2-2-2--6-6-6-6---|     
E|-4-4-4-4--0-0-0-0---------------------|
            
Submit corrections

comments powered by Disqus
↑ Back to top | Sunrise Avenue Tabs for Choose To Be Me. Lyrics for acoustic guitar and electric guitar. 1 Tablatures and chords are parodies/interpretations of the original songs. You may use it for private study, scholarship, research or language learning purposes only