>
 >
The Ocean

The Ocean Guitar Tabs

Sunny Day Real Estate - The Ocean chords, tabs, tablatures, lyrics

Guitar lessons | Add/correct | Request | Top 50 tabs Artists:  A B C D E F G H I J K L M N O P Q R S T U V W X Y Z 0-9

The Ocean Guitar Tabs – Sunny Day Real Estate

CD, Sheet music, Poster

Do you like The Ocean? Share with your friends now
Tabs
-------------------------------------------------------------------------------
-------------------------------------------------------------------------------

I heard this song and REALLY wanted to play it but there were no tabs :(
This is my first tab, plese be nice ;)
I know it's not 100% , especially in the middle section, but it's hard to hear. It
right to me though :

Tuning: Half Step down
   3/4
  RHYTHM: VERSE RIFF
e|-----------------------|
B|-----------------------|
G|-------------------4---|
D|---6s4--4s2-----2---2--|
A|-------------4---------|
E|0----------------------|

e|-----------------------|
B|-----------------------|
G|-------------------2---|
D|---6s4--4s2-----2---2--|
A|-------------4---------|
E|0----------------------|
  RHYTHM: CHORUS
  F#m
e|2----------------------|
B|2----------------------|
G|2----------------------|
D|4----------------------|
A|4----------------------|
E|2----------------------|
 RHYTHM: VERSE 2 MID SECTION
e|0-----------------------|
B|0-----------------------|
G|0-----------------------|
D|7-----------------------|
A|7-----------------------|
E|5-----------------------|
 RHYTHM: BRIDGE (WHEN YOU HIT THE GROUND)
  C#m      B         E                  C#m        B      Asus2 (I think)
e|4--------7---------7-----7-------------4---------7-------0-------------------|
B|5--------7---------9-----9-------------5---------7-------0-------------------|
G|6--------8---------9-----9-----X3------6---------8-------2-------------------|
D|6--------9---------9-----7-------------6---------9-------2-------------------|
A|4--------9---------7-----7-------------4---------9-------0-------------------|
E|---------7---------------------------------------7---------------------------|

e|---------------------------------------------------------------------------|
B|---------------------------------------------------------------------------|
G|---------------------------------------------------------------------------|
D|----14s13----13s11------5---5577-------------------------------------------|
A|------------------------3---3355-------------------------------------------|
E|0--------------------------------------------------------------------------|
  LEAD: MAIN RIFF
e|--------12---11--10-----------------------------------------------------------|
B|---9-----------------------9----10---9---7------------------------------------|
G|9-----9-----------------9-----9-----------------------------------------------|
D|------------------------------------------------------------------------------|
A|------------------------------------------------------------------------------|
E|------------------------------------------------------------------------------|

You can piece it together from there. When not playing the riff, the lead plays the same 
the rhythm.


| /  slide up
| \  slide down
| h  hammer-on
| p  pull-off
| ~  vibrato
| +  harmonic
| x  Mute note
===============================================================================





Comments


Popular Sunny Day Real Estate tabs & chords
Snibe Bass Tabs
Guitar And Video Games Chords
8 Tabs
8 1 Tabs
Pillars Tabs
Seven 1 Tabs
Tearing In My Heart Tabs
Theo B Tabs
Faces In Disguise Ukulele
Guitar And Video Games Ukulele


Song lyrics



↑ Back to top | Tablatures and chords are parodies/interpretations of the original songs. You may use it for private study, scholarship, research or language learning purposes only
© 2014 AZChords.com Contact us | Privacy policy | DMCA | Add/correct tabs | Request tabs | Top 50 tabs