>
 >
Raindrops Keep Falling On My Head

Raindrops Keep Falling On My Head Guitar Tabs

Sungha Jung - Raindrops Keep Falling On My Head chords, tabs, tablatures, lyrics

Guitar lessons | Add/correct | Request | Top 50 tabs Artists:  A B C D E F G H I J K L M N O P Q R S T U V W X Y Z 0-9

Raindrops Keep Falling On My Head Guitar Tabs – Sungha Jung

CD, Sheet music, Poster

Do you like Raindrops Keep Falling On My Head? Share with your friends now
Tabs
        ||-----------------------------------------------------||
        ||----------RAINDROPS-KEEP-FALLING-ON-MY-HEAD----------||
        ||-----------------------------------------------------||
        ||-------------------BY:-SUNGHA-JUNG-------------------||
        ||---------------TABBED-BY:-REGGIE-REYES---------------||

Hello! I'm Reggie Reyes from Philippines and this is my first time to tab a song
and I tabbed it for some reason and also because I am also a fan of Sungha Jung.
    "I think it is almost 90% accurate."
    "Just listen to the song to play it clearly."
It is not that hard, you just need to practice.
OK! Here we go...

p= pull off
h= hammer on

Tuning: Standard
||First part|| (These must be the Intro)

e||--0-0-0-0-0-0-0-0-1-1-0--0-0--||
B||--5-5-5-5-3-3-3-3-1-1-3--3-3--||
G||--5-5-5-5-4-4-4-4-2-2-4--4-4--||
D||----------------------5--5-5--||
A||------------------------------||
E||------------------------------||

||Second part|| or MAIN RIFF 

e||-0-0-0-0h1-0-----0----------3-3-3-5-3-1-0-0-1--------7-0-0-5-------|
B||-------------3-1---0-0--0-0-------------------3---1----0-0-5-8-5-0-|
G||-------------------0-0--0-0----------------------------0-0-5-------|
D||---2--------------------------2------------------------------------|
A||-3---------------3----------3------------------------------0-------|
E||-------3---------------3----------3---2---1-----1----0-------------|

  -7-0-5---5-0-3-3-0-1-3-1-0-3-3-0-1-3-----1-----||  |--\                  THEN
  ---0-5---5-0-1-------------1-------------1-1-3-||  |---\                 ||||  
  ---0-5---5-----------------------------0---0---||  |----\   PLAY THIS  __||||__
  -------------0-------------0---------------3---||  |----/    2 TIMES   \\\\////
  -------0-------------------------------------2-||  |---/                \\\///
  -0-----------------------------------3---------||  |--/                  \\//
                                                                            \/
e||-0-------3---------0-----0-----0-----0-1-5---3-3-3-5-3-3-3-7-5---------0----|
B||-----1-----3---3-------1---3-1-----3-----------0-------0-------8-5-3-1---3--|
G||---0-------4-----------------------------------0-------0--------------------|
D||-------------2---------------------------------2-------2-----------0--------|
A||-3-----3---3-----------------------------------------------0----------------|
E||-----------------3---2-1---1-----3---------0-------0------------------------|

  ---------------------||  |--\                  THEN
  ------1-3-------1-3--||  |---\                 ||||
  ------2-4-0-----2-4--||  |----\ THEN REPEAT  __||||__
  ----0-3-5-----0-3-5--||  |----/  MAIN RIFF   \\\\////
  ---------------------||  |---/                \\\///
  --3---------3--------||  |--/                  \\//
                                                  \/

e||---------3h5-3-----|-0-------3-----0-1-0-------0-----0-1-5---3-3-3-5-3-5---3-3-3-|
B||---------------1h3-|-----1-----3---------3---1-----3-----------0-------------0---|
G||-----5-5-----------|---0-------4-------------------------------0-------------0---|
D||---0---------------|-------------------------------------------2-------------2---|
A||-------------------|-3-----3---3-------------------------------------------------|
E||-3-----------------|-------------3---1-----1-----3---------0-------0-----0-------|

  -7-5---------0-----------------------------1-3-------1-3--||  |--\
  -----8-5-3-1---3-------1-3-------1-3-------1-3-------1-3--||  |---\
  -----------------0-----2-4-0-----2-4-0-----2-4-0-----2-4--||  |----\   THEN REPEAT
  ---------0-----------0-3-5-----0-3-5-----0---------0------||  |----/ MAIN RIFF ONCE
  ----------------------------------------------------------||  |---/
  -0-----------------3---------3---------3---------3--------||  |--/

||ENDING PART|| 
                                                __    __   _______
e||---0---0-----0---0---0---0-----5-3-0------|  \ \  / /  | ______| ------||
B||-3---3---1-3---3---3---3---3p1-------3-1--|   \ \/ /   | |____   ------||
G||------------------------------------------|    \  /    |_____ \  --0---||
D||------------------------------------------|    /  \          | | ---2--||
A||-3-3-3-3-3-3-3-3-3-1-1-1-1-1---1-1-1-1-1--|   / /\ \    _____| | ----3-||
E||------------------------------------------|  /_/  \_\  |______/  ------||

Thats all!

Thank You...





Comments


Popular Sungha Jung tabs & chords
A Thousand Years 1 Tabs
Can I Love You Tabs
Field Of Gold Tabs
I Love You Tabs
Love Story Tabs
Mad World Tabs
Mad World 1 Tabs
Mission Imposible Them Intro Tabs
River Flows In You 4 Tabs
Silent Night Tabs


Song lyrics



↑ Back to top | Tablatures and chords are parodies/interpretations of the original songs. You may use it for private study, scholarship, research or language learning purposes only
© 2014 AZChords.com Contact us | Privacy policy | DMCA | Add/correct tabs | Request tabs | Top 50 tabs