» » »

Sum 41, Pieces Tabs (ver.3)

Artists:  A B C D E F G H I J K L M N O P Q R S T U V W X Y Z # 

Pieces Tabs (ver.3)

Sum 41 Tabs
 Rating:
4/5 (4 votes)
Pieces lessons Tabs too difficult? Try these video lessons and learn fast
                /\/\/\/\/\/\/\/\/\/\/\/\/\/\/\/\/\/\/\/\/\/\/\/\/\/\/\/\/\/\/\/\/\/\/

Song   : Pieces
Artist : Sum 41
Album  : Chuck (2004)

/\/\/\/\/\/\/\/\/\/\/\/\/\/\/\/\/\/\/\/\/\/\/\/\/\/\/\/\/\/\/\/\/\/\/

Hey everyone, here's a simple tab for a excellent song on
the latest CD by Sum 41.  Enjoy!  I don't have two guitarists to see
how it sounds but it looks fairly accurate.

/\/\/\/\/\/\/\/\/\/\/\/\/\/\/\/\/\/\/\/\/\/\/\/\/\/\/\/\/\/\/\/\/\/\/

Droped D Tuning

The strumming is simple enough to find on your own, plus it's a
pain to tab out. So I'll just give you the chords in order.

If your band wants to do this song, the singer would play
guitar 1.  I personally don't have a second guitar player
in my band, so I kinda combine the two guitar parts, but that's
not tabbed here.

/\/\/\/\/\/\/\/\/\/\/\/\/\/\/\/\/\/\/\/\/\/\/\/\/\/\/\/\/\/\/\/\/\/\/

 *KEY*

~ hold
\ slide down

/\/\/\/\/\/\/\/\/\/\/\/\/\/\/\/\/\/\/\/\/\/\/\/\/\/\/\/\/\/\/\/\/\/\/
 ___________________
|                   |
|     Guitar 1      | (This guy gets the easy job)
| slightly ditorted |
|___________________|


 *Intro* and first verse       
                               
e|-----5------------|               
B|-----6------------|               
G|-----7------------| x3           
D|-----7---8\-3--2--|                
A|-----5---8\-3--3--|                 
D|---0~~---8\-3--2--|          

 *Chorus*

e|-----------|-----||-----|	
B|-----------|-----||-----|	    
G|--3--------|-x2--||--3--|	     
D|--3--3--2--|-end-||--3--|	    
A|--1--3--3--|-on--||--1--|	   
D|-----3--2--|-----||-----|		 

 *Verse*  

e|--------------|	      
B|--------------|	       
G|-----3--------|  x3	     
D|--0--3--3--2--|	       
A|--0--1--3--3--|	      
D|--0-----3--2--|	

 *Chorus*
			 
e|-----------|-----||-----|	
B|-----------|-----||-----|	    
G|--3--------|-x2--||--3--|	     
D|--3--3--2--|-end-||--3--|	    
A|--1--3--3--|-on--||--1--|	   
D|-----3--2--|-----||-----|
       
 *Pre-Solo*

e|-----------|	
B|-----------|    
G|-----3--5--| x2
D|--3--3--5--|
A|--3--1--3--|
D|--3--------|

 *SOLO*  (kick up the distortion here)

e|--------------|-----||-----|
B|--------------|-----||-----|    
G|--7--5--3-----|-x2--||--6--| x2
D|--7--5--3--3--|-end-||--6--|
A|--5--3--1--3--|-on--||--4--|
D|-----------3--|-----||-----|

 *Verse* 

e|--------------|	      
B|--------------|	       
G|-----3--------|  x3	     
D|--0--3--3--2--|	       
A|--0--1--3--3--|	      
D|--0-----3--2--|	

 *Chorus*
			 
e|-----------|-----||-----|	
B|-----------|-----||-----|	    
G|--3--------|-x2--||--3--|	     
D|--3--3--2--|-end-||--3--|	    
A|--1--3--3--|-on--||--1--|	   
D|-----3--2--|-----||-----|

End the song on

e|------|	      
B|------|	       
G|------| 	     
D|--3~--|	       
A|--3~--|	      
D|--3~--|

 ___________________
|                   |
|      Guitar 2     |
| slightly ditorted |
|___________________|

 *Nothing for the intro and first verse*

 *First Chorus*

e|----5-----5-----5-----5-----5-----5-----3----3--|-----||--1--|
B|--6--6--6--6--6--6--6--6--6--6--6--5--5--5-5--5-|-----||--3--|
G|-5-5---5-5---5-5---5-5---5-5---5-5---5-5--5-5---|-x2--||--3--|
D|------------------------------------------------|-end-||-----|
A|------------------------------------------------|-on--||-----|
D|------------------------------------------------|-----||-----|

 *Verse*

e|--5--6--5--3--|----|
B|--6--6--6--5--|----|
G|--5--5--5--5--|-x3-|
D|--------------|----|
A|--------------|----|
D|--------------|----|

 *Chorus*

e|--6--5--8--|-----||--6--|
B|--6--6--5--|-----||--6--|
G|--5--5--5--|-x2--||--5--|
D|-----------|-end-||-----|
A|-----------|-on--||-----|
D|-----------|-----||-----|

 *Pre-solo* 

e|--5--6--5--6--5--6--8--|----|
B|--6--6--6--6--6--6--6--|----|
G|--5--5--5--5--5--5--5--|-x2-|
D|-----------------------|----|
A|-----------------------|----|
D|-----------------------|----|

 *SOLO* (kick up the distortion)

e|--------8--------8-------5-------5----|----|
B|--10---------8-------6---------6------|----|
G|-----10---10---9---9---7---7-5-----5--|-x2-|
D|--------------------------------------|----|
A|--------------------------------------|----|
D|--------------------------------------|----| 

 *Verse* (lower the distortion again)

e|--5--6--5--3--|----|
B|--6--6--6--5--|----|
G|--5--5--5--5--|-x3-|
D|--------------|----|
A|--------------|----|
D|--------------|----|

 *Chorus*

e|--6--5--8--|-----||--6--|
B|--6--6--5--|-----||--6--|
G|--5--5--5--|-x2--||--5--|
D|-----------|-end-||-----|
A|-----------|-on--||-----|
D|-----------|-----||-----|

(mute the guitar when guitar 1 plays the last chord)

/\/\/\/\/\/\/\/\/\/\/\/\/\/\/\/\/\/\/\/\/\/\/\/\/\/\/\/\/\/\/\/\/\/\/
 
 *Legal Blah*

I reconize that this song was written and produced by Sum 41, and 
that all rights for this song belong to them.  All I ask for is a
little cridit if you use this tab for your own purposes,
because this took me quite a few hours to write out.

 *Questions, Comments, Hate Mail and Love Letters can be sent to:


  Thanks for using this tab and gave a great day (or night).

/\/\/\/\/\/\/\/\/\/\/\/\/\/\/\/\/\/\/\/\/\/\/\/\/\/\/\/\/\/\/\/\/\/\/
            
Submit corrections

comments powered by Disqus
↑ Back to top | Sum 41 Tabs for Pieces. Lyrics for acoustic guitar and electric guitar. Tablatures and chords are parodies/interpretations of the original songs. You may use it for private study, scholarship, research or language learning purposes only