» » »

Feelings Back Tabs (ver.2)

Artists:  A B C D E F G H I J K L M N O P Q R S T U V W X Y Z # 

Feelings Back Tabs (ver.2)

Suicidal Tendencies
Rating:
0/5 (0 votes)

Tabs too difficult? Try these video lessons and learn fast.
                
Tune down 1/2 step - Eb

About 200 BPM

Riff 1
|----------------------------------------------------------------|
|----------------------------------------------------------------|
|------------7---------------------------------------------------|  
|------------5-------------------5-----------7-------7---7-------|
|2-----------------------2-------3-------3-0-5-------5---5-------|
|0-------0-0---------0-0-0-0-2-3---------------------------0-3-2-|
         . .         . .   . . .         . .               . . .

Riff 2A|
|----------------------------------------------------------------|
|----------------------------------------------------------------|
|----------------------------------------------------------------|
|------------0---2-------------5---------------7---7---7---------|
|------------0---2---------4/5-3-----------4/5-5---5---5-5-4-2---|
|0-0-0-0-0-0-------0-0-0-0-2/3-----0-0-0-0-2/3-----------3-2-0---|
 . . . . . .       . . . .         . . . . 

Riff 2B|
|----------------------------------------------------------------|
|----------------------------------------------------------------|
|----------------------------------------------------------------|
|------------0---2-------------5---------------7---7---7-9-7-9---|
|------------0---2---------4/5-3-----------4/5-5---5---5-7-5-7---|
|0-0-0-0-0-0-------0-0-0-0-2/3-----0-0-0-0-2/3-------------------|
 . . . . . .       . . . .         . . . . 

Riff 3
|--------------------------------|
|--------------------------------|
|--------------------------------|
|----2-----3-----2-----3-----2---|
|----2-----3-----2-----3-----2---|
|0-0-----0-----0-----0-----0-----|
 . .     .     .     .     .

Riff 4
|----------------------------------------------------------------|
|----------------------------------------------------------------|
|----------------------------------------------------------------|
|2---------------8---------------5-------------------------------|
|0---0-0-0-0-0-0-6---0-0-0-0-0-0-3---0-0-0-0-0-0-8---7/8\7 810---| <--8/10
|------------------------------------------------6---5/6\5-6/8---|    6/8
     . . . . . .     . . . . . .     . . . . . .

Riff 5
|----------------------------------------------------------------|
|----------------------------------------------------------------|
|----------------------------------------------------------------|
|----------------------------------------------------------------|
|8---7/8\7-810---8---7/8\7-810---7--------------(7)--------------|
|6---5/6\5-6/8---6---5/6\5-6/8---5--------------(5)--------------|

Riff 6
|----------------------------------------------------------------|
|----------------------------------------------------------------|
|----------------------------------------------------------------|
|--------7---------------5---------------7---5/7-8\7---5-----7---|
|--------7---------------5---------------7---5/7-8\7---5-----7---|
|0-0-0-0---------0-0-0-0---------0-0-0-0-------------0-----------|
 . . . .         . . . .         . . . .             .

Riff 7
|---------------------------------|
|---------------------------------|
|---------------------------------|
|---------------------------------|
|2--------------------------------|
|0--------------------------------|

Here how it flows:
Riff 1 x6
RIff 2 (A&B) x3
Riff 3 x4
Riff 2 (A&B) x2
Riff 3 x2
Riff 4 x4
Riff 5 x1
RIff 6 x8
RIff 2 (A&B) x2
Riff 3 x8
RIff 7 x1
RIff 1 - Song fades out playing this one.
            
Tabs too difficult? Try these video lessons and learn fast.


comments powered by Disqus
↑ Back to top | Tablatures and chords are parodies/interpretations of the original songs. You may use it for private study, scholarship, research or language learning purposes only