>
 >
Suicidal Maniac

Suicidal Maniac Guitar Tabs

Suicidal Tendencies - Suicidal Maniac chords, tabs, tablatures, lyrics

Guitar lessons | Add/correct | Request | Top 50 tabs Artists:  A B C D E F G H I J K L M N O P Q R S T U V W X Y Z 0-9

Suicidal Maniac Guitar Tabs – Suicidal Tendencies

CD, Sheet music, Poster

Do you like Suicidal Maniac? Share with your friends now
Tabs
.  - palm mute           /  - slide up to
\  - slide down to       ~  - vibrato
h  - hammer on           b  - Bend
p  - pull off            Suffixes for bend
t  - tap                 f  - full bend    h - half bend
ph - pinched harmonic    q  - quarter bend t - tap bend
*  - see comment         ^  - Hold bend    r release bend
x  - Stuccatto           ~  - vibrato bend
,  - slight palm mute    () - ghost note, sustained note
"  - tremolo note         - Trill

Tunning E A D G B E
 

 Intro

     [PM]     [PM]    PM  PM
E---------------------------------|
B---------------------------------|
G----------------------------5--5-|
D----------------------------5--5-|
A-2------4/5------5\4---4----3--3-|
E-0--0-0-2/3--0-0-3\2-0-2--0------| Rpt


     [PM]     [PM]    PM  PM
E----------------------------------|
B----------------------------------|
G----------------------------5-5-5-|
D----------------------------5-5-5-|
A-2------4/5------5\4---4----3-3-3-|
E-0--0-0-2/3--0-0-3\2-0-2--0-------| Rpt 4 X

     [PM]     [PM]    PM  
E------------------------------------------------------------------|
B------------------------------------------------------------------|
G------------------------------------------------------------------|
D-----------------------------2-----------------(2)----------------|
A-2------4/5------5\4---4-----0-----------------(0)----------------|
E-0--0-0-2/3--0-0-3\2-0-2-2-3--------------------------------------|

E------------------------------------------------|
B------------------------------------------------|
G---5-5/7---------------------------------5-5/7--|
D-5-5-5/7-2-----------------------------5-5-5/7--|
A-5-3-3/5-0-----------------------------5-3-3/5--|
E-3-------------------------------------3--------|

 Main Riff

E----------------------------|
B----------------------------|
G-----------5---------5---7--|
D-----------5-5-------5-5-7--|
A-2-2---4/5-3-5-2-2---3-5-5--|
E-0-0-0-2/3---3-0-0-0---3----| Rpt 4 X

 Bridge

 [-------PM------]
E-----------------------------|
B-----------------------------|
G-----------------------------|
D-----------------5---5---5/7-|
A-0-0-0-0-0-0-0-0-3-5-3-5-3/5-|
E-------------------3---3-----| Rpt 4 X

 Chorus

E--------------------------------------|
B--------------------------------------|
G-9-9-9-9/12-12-12-12\1111111110101010-|
D-9-9-9-9/12-12-12-12\1111111110101010-|
A-7-7-7-7/10-10-10-10\9-9-9-9\8-8-8-8--|
E--------------------------------------|

E-----------------------------------------|
B-----------------------------------------|
G-9-9-9-9/12-12-12-12\1111111114-14-14-14-|
D-9-9-9-9/12-12-12-12\1111111114-14-14-14-|
A-7-7-7-7/10-10-10-10\9-9-9-9/12-12-12-12-|
E-----------------------------------------|

 Rpt above 2 riffs

 Rpt Verse, Bridge and Chorus

E---------------------------|
B---------------------------|
G-7-7--7-7-7-7-5-5--5-5-5-5-|
D-7-7--7-7-7-7-5-5--5-5-5-5-|
A-5-5--5-5-5-5-3-3--3-3-3-3-|
E---------------------------| Rpt 4 X

 Backing for guitar solo

 
E--------------------------|
B--------------------------|
G--9-9--9-9-9-9---7-7--5/7-|
D--9-9--9-9-9-9---7-7--5/7-|
A--7-7--7-7-7-7---5-5--3/5-|
E--------------------------| Rpt 4 X 

E---------------------------|
B---------------------------|
G-4-4--4-4-4--4-4-4--2-2-2--|
D-4-4--4-4-4--4-4-4--2-2-2--|
A-2-2--2-2-2--2-2-2--0-0-0--|
E---------------------------| Rpt 4 X

 Rpt Verse and Bridge. 
 Rpt Chorus 2 X

 Ending

E-------------------------------------|
B-------------------------------------|
G-14----------------------------------|
D-14-repeated crashing on this chord--|
A-12----------------------------------|
E-------------------------------------|

E--------------------------------------------|
B--------------------------------------------|
G--------------------------------------------|
D-2--repeated crashing on this chord-(2)-----|
A-2----------------------------------(2)-----|
E-0----------------------------------(0)-----|

E----|
B----|
G----|
D-2--|
A-2--|
E-0--|



END





Comments


Popular Suicidal Tendencies tabs & chords
Built To Survive Bass Tabs
Naked Bass Tabs
Send Me Your Money Bass Tabs
We Are Family 3 Bass Tabs
I Want More Chords
Get Whacked 1 Tabs
If I Don't Wake Up Tabs
Love Vs Tabs
Two Sided Politics Tabs
You Can't Bring Me Down 1 Tabs


Song lyrics



↑ Back to top | Tablatures and chords are parodies/interpretations of the original songs. You may use it for private study, scholarship, research or language learning purposes only
© 2014 AZChords.com Contact us | Privacy policy | DMCA | Add/correct tabs | Request tabs | Top 50 tabs