>
 >
Send Me Your Money

Send Me Your Money Guitar Tabs

Suicidal Tendencies - Send Me Your Money chords, tabs, tablatures, lyrics

Guitar lessons | Add/correct | Request | Top 50 tabs Artists:  A B C D E F G H I J K L M N O P Q R S T U V W X Y Z 0-9

Send Me Your Money Guitar Tabs – Suicidal Tendencies

CD, Sheet music, Poster

Do you like Send Me Your Money? Share with your friends now
Bass TabsTabs
SUICIDAL TENDENCIES - SEND ME YOUR MONEY
(Lights, Camera, Revolution!, 1990)

Key
= after note = vibrato
^ after note = heavy vibrato 
\ = slide down
/ = slide up
+ = tap
h = hammer
p = pull
n = natural harmonic
s = pinching harmonic (squeal)
* = tremolo pick
t = trill
b = bend
|-3-| = triplet

n number above the tab = play the first part then the first finishing part
			 play the first part a second time and then play the second finishing part
			 etc.

Riff 1A

E --------------------------------------------------------------------------------
B --------------------------------------------------------------------------------
G --------------------------------------------------------------------------------
D -2-2-----------------------2-2-----------------------2-2------------------------
A -2-2-----------------------2-2-----------------------2-2------------------------
E -0-0-----------------------0-0-----------------------0-0------------------------

Riff 1

E -------------------------------------------
B -------------------------------------------
G -------------------------------------------
D -2----/6----/5----7--8----/5----/6----5--6-
A -2----/6----/5----7--8----/5----/6----5--6-
E -0--0-/4--0-/3--0-5--6-0--/3--0-/4--0-3--4-

Riff 1B

E -----------------------
B -----------------------
G -----------------------
D -2----/6----/5----7--8-
A -2----/6----/5----7--8-
E -0--0-/4--0-/3--0-5--6-

Riff 1C

E ---------------------------------------------------------------------------------------------------------
B ---------------------------------------------------------------------------------------------------------
G ---------------------------------------------------------------------------------------------------------
D -2-2-----------------------2-2-(random noise here)---2-2------------------------2---(random noise)-------
A -2-2-----------------------2-2-----------------------2-2------------------------2------------------------
E -0-0-----------------------0-0-----------------------0-0------------------------0------------------------

Riff 1D

E ---------------------------------------------
B ---------------------------------------------
G ---------------------------------------------
D -2--2-2-2-2-2--2-2-2-2-2--2-9--9-------2--2--
A -2--2-2-2-2-2--2-2-2-2-2--2-7--7-------2--2--
E -0--0-0-0-0-0--0-0-0-0-0--0------------0--0--

Order

Riff 1 x 1
Riff 1 x 3
Riff 1B x 1
Riff 1 x 4
Riff 1C x 1
Riff 1 x 4
Riff 1A x 1
Riff 1 x 4
(Bass solo)
Riff 1 x 1
(Silence)
Riff 1 x 1
(Bass solo)
Riff 1 x 4
Riff 1C x 1
Riff 1 x 4
Riff 1A x 1
Riff 1 x 7
Riff 1D x 1





Comments


Popular Suicidal Tendencies tabs & chords
Accept My Sacrifice Bass Tabs
Looking In Your Eyes 1 Bass Tabs
We Are Family 3 Bass Tabs
Cyco Vision Tabs
Cyco Vision 1 Tabs
I Ain't Like You Tabs
I Saw Your Mommy Intro Tabs
Institutionalized 4 Tabs
No Fuckingproblem Tabs
Suicide's An Alternative Tabs


Song lyrics



↑ Back to top | Tablatures and chords are parodies/interpretations of the original songs. You may use it for private study, scholarship, research or language learning purposes only
© 2014 AZChords.com Contact us | Privacy policy | DMCA | Add/correct tabs | Request tabs | Top 50 tabs