>
 >
Pledge Your Allegiance

Pledge Your Allegiance Bass Tabs

Suicidal Tendencies - Pledge Your Allegiance chords, tabs, tablatures, lyrics

Guitar lessons | Add/correct | Request | Top 50 tabs Artists:  A B C D E F G H I J K L M N O P Q R S T U V W X Y Z 0-9

Pledge Your Allegiance Bass Tabs – Suicidal Tendencies

CD, Sheet music, Poster

Do you like Pledge Your Allegiance? Share with your friends now
Bass TabsBass Tabs v2Tabs
Suicidal Tendencies - Pledge Your Allegiance

INTRO
G|-----------------|
D|-----------------|
A|-----------------|
E|-0-0-1-0-03-----|

CHORUS RIFF
G|--------------------------------|
D|--------------------------------|
A|--7-----5/7/5-----8-----10------|
E|----0-0-------0-0---0-0---------|

VERSE
G|----------------------------------------------|
D|----------------------------------------------|
A|----------------------------------------------|
E|--0~~~~~~~~~~~~~~~~1--1---0~~~~~~~~~~~~1-1/3--|

G|-------------------------------------------------|
D|-------------------------------------------------|
A|-----------------------------------------8----10-|
E|--0~~~~~~~~~~~~~~~~1--1---0~~~~~~~~~~0-0---0-0---|

PRE GUITAR SOLO
G|---------------------------------------------------------------------------|
D|---------------------------------------------------------------------------|
A|---------------------------------------------------------------------------|
E|-0-0-0-0-0-0-0-0-0-0-0-0-0-0-0-0-0-0-0-0-0-0-0-0-0-0-0-0-0-0-0-0-0-0-0-0-0-|

GUITAR SOLO
G|----------------------------------|
D|---------------------------567--|
A|-7--75--67-----77567--------|
E|--------------0-------------------|





Comments


Popular Suicidal Tendencies tabs & chords
Accept My Sacrifice Bass Tabs
Go Skate Bass Tabs
Naked 1 Bass Tabs
Scream Out Bass Tabs
Send Me Your Money 1 Bass Tabs
Cyco Vision 1 Tabs
Fascist Pig 1 Tabs
Goin Breakdown 1 Tabs
Nobody Hears 1 Tabs
Wont Fall In Love Today Tabs


Song lyrics



↑ Back to top | Tablatures and chords are parodies/interpretations of the original songs. You may use it for private study, scholarship, research or language learning purposes only
© 2014 AZChords.com Contact us | Privacy policy | DMCA | Add/correct tabs | Request tabs | Top 50 tabs