» » »

Suicidal Tendencies, Pledge Your Allegiance Bass tabs (ver.1)

Artists:  A B C D E F G H I J K L M N O P Q R S T U V W X Y Z # 

Pledge Your Allegiance Bass tabs (ver.1)

Suicidal Tendencies Tabs
 Rating:
4/5 (4 votes)
Pledge Your Allegiance lessons Tabs too difficult? Try these video lessons and learn fast
                Suicidal Tendencies - Pledge Your Allegiance

INTRO
G|-----------------|
D|-----------------|
A|-----------------|
E|-0-0-1-0-0—3-----|

CHORUS RIFF
G|--------------------------------|
D|--------------------------------|
A|--7-----5/7/5-----8-----10------|
E|----0-0-------0-0---0-0---------|

VERSE
G|----------------------------------------------|
D|----------------------------------------------|
A|----------------------------------------------|
E|--0~~~~~~~~~~~~~~~~1--1---0~~~~~~~~~~~~1-1/3--|

G|-------------------------------------------------|
D|-------------------------------------------------|
A|-----------------------------------------8----10-|
E|--0~~~~~~~~~~~~~~~~1--1---0~~~~~~~~~~0-0---0-0---|

PRE GUITAR SOLO
G|---------------------------------------------------------------------------|
D|---------------------------------------------------------------------------|
A|---------------------------------------------------------------------------|
E|-0-0-0-0-0-0-0-0-0-0-0-0-0-0-0-0-0-0-0-0-0-0-0-0-0-0-0-0-0-0-0-0-0-0-0-0-0-|

GUITAR SOLO
G|----------------------------------|
D|---------------------------5—6—7--|
A|-7--7—5--6—7-----7—7—5—6—7--------|
E|--------------0-------------------|
            
Submit corrections

comments powered by Disqus
↑ Back to top | Suicidal Tendencies Bass for Pledge Your Allegiance. Lyrics for acoustic guitar and electric guitar. Tablatures and chords are parodies/interpretations of the original songs. You may use it for private study, scholarship, research or language learning purposes only