» » »

One Too Many Times Tabs (ver.1)

Artists:  A B C D E F G H I J K L M N O P Q R S T U V W X Y Z # 

One Too Many Times Tabs (ver.1)

Suicidal Tendencies
Rating:
0/5 (0 votes)

Tabs too difficult? Try these video lessons and learn fast.
                #------------------------------------------------------------------------------##

Suicidal Tendencies - One too many times

e-------------------------------------------------------------
b-------------------------------------------------------------
g-------------------------------------------------------------
D---2-----------------5--------7--------2---------------------
A---0--------3--------3--------5--------0---------------------
E------------1------------------------------------------------

e-------------------------------------------------------------
b-------------------------------------------------------------
g--------5---4---5--------------------------------------------
D--------5---4---5--------------------------------------------
A---0-0----x---x----------------------------------------------
E-------------------------------------------------------------

e-------------------------------------------------------------
b-------------------------------------------------------------
g-------------------------------------------------------------
D---2------------------5-4-2----------------------------------
A---0--0-00-5/7-5/7--5-3-2-0-3------------------------3-------
E-----------3/5-3/5--3-------1--1--111-11-111-11-111-11-------
                                These are all F's (muted)

e-------------------------------------------------------------
b-------------------------------------------------------------
g-------------------------------------------------------------
D---2------------------5-4-2------------5----7----------------
A---0--0-0--5/7-5/7--5-3-2-0-3-----0-0--3--0-5--------x-------
E-----------3/5-3/5--3-------1--------------------------------

e-------------------------------------------------------------
b-------------------------------------------------------------
g-------------------------------------------------------------
D-------------------------------------------------------------
A---2------------5--------------5---5-5/7----4---4-4/5--------
E---0--0-0-0-0-0-3--0-0-0-0-0-0-3-x-3-3/5--x-2-x-2-2/3--------

e-------------------------------------------------------------
b-------------------------------------------------------------
g-------------------------------------------------------------
D---2----5----4-----2----5----7-------7/9\7-------------------
A---0--0-3--0-2-----0--0-3--0-5-----5-5/7\5-------------------
E-------------------------------------------------------------
    ----------x3
finishes on the D ------------^

Matthew Johnson
            
Tabs too difficult? Try these video lessons and learn fast.




comments powered by Disqus
↑ Back to top | Tablatures and chords are parodies/interpretations of the original songs. You may use it for private study, scholarship, research or language learning purposes only