» » »

Suicidal Tendencies, Lovely Tabs (ver.1)

Artists:  A B C D E F G H I J K L M N O P Q R S T U V W X Y Z # 

Lovely Tabs (ver.1)

Suicidal Tendencies Tabs
 Rating:
4/5 (5 votes)
Lovely lessons Tabs too difficult? Try these video lessons and learn fast
                Band:  Suicidal Tendencies

Copyright (c)  (Epic) (1990)
Version 1.0 - (06/05/05)



.  - palm mute           /  - slide up to
\  - slide down to       ~  - vibrato
h  - hammer on           b  - Bend
p  - pull off            Suffixes for bend
t  - tap                 f  - full bend    h - half bend
ph - pinched harmonic    q  - quarter bend t - tap bend
*  - see comment         ^  - Hold bend    r release bend
x  - Stuccatto           ~  - vibrato bend
,  - slight palm mute    () - ghost note, sustained note
"  - tremolo note        <> - Trill

Tunning E A D G B E
 
 Intro / Main Riff

  Guitar 1
                                                      h   h                                                
E[-----------------------------------------------------------|
B[-----------------------------------------------------------|
G[-----------------------------------------------------------|
D[----------------------------5------------------------------|
A[-12\--2-2-2-2-2--4-4-4-4-4--3---5-5-5-5-5--7-7-7\-5-7p5-7--|
E[-12\--0-0-0-0-0--2-2-2-2-2------3-3-3-3-3--5-5-5\----------|
 [
 [Guitar 2                    ph~~
E[-----------------------------------------------------------|
B[-----------------------------------------------------------|
G[-----------------------------------------------------------|
D[----------------------------5------------------------------|
A[-----------------------------------------------------------|
E[-----------------------------------------------------------|

  Guitar 1
                                                 h   h   
E[------------------------------------------------------|
B[------------------------------------------------------|
G[------------------------------------------------------|
D[-----------------------5------------------------------|
A[-2-2-2-2-2--4-4-4-4-4--3---5-5-5-5-5--7-7-7\-5-7p5-7--|
E[-0-0-0-0-0--2-2-2-2-2------3-3-3-3-3--5-5-5\----------|
 [
 [Guitar 2               ph~~
E[------------------------------------------------------|
B[------------------------------------------------------|
G[------------------------------------------------------|
D[-----------------------5------------------------------|
A[------------------------------------------------------|
E[------------------------------------------------------| Rpt 3 X

 Verse

E------------------------------------------------------------|
B------------------------------------------------------------|
G------------------------------------------------------------|
D-7----------------(7)-------------\3-------(3)-------4---4--|
A-5----------------(5)-------------\1-------(1)-------2---2--|
E-------------------------------------------------------x----|

E--------------------------------------------------|
B--------------------------------------------------|
G--------------------------------------------------|
D----------------------5-----------------------3---|
A-2-2-2-2-2------------3--2-2-2-2-2------------1---|
E-0-0-0-0-0---------------0-0-0-0-0----------------|

E--------------------------------------------------|
B--------------------------------------------------|
G----------------------------------------------0---|
D----------------------------------------------0---|
A-2-2-2-2-2------------7\5-2-2-2-2-2--2-2-2-2------|
E-0-0-0-0-0------------5\3-0-0-0-0-0--0-0-0-0-3----|

 Rpt above riffs

E------------------------------------------------------------|
B------------------------------------------------------------|
G------------------------------------------------------------|
D-7----------------(7)-------------\3-------(3)-------4---4--|
A-5----------------(5)-------------\1-------(1)-------2---2--|
E-------------------------------------------------------x----|

 Rpt Main Riff 2 X for Chorus

E------------------------------------------------------------|
B------------------------------------------------------------|
G------------------------------------------------------------|
D-7----------------(7)-------------\3-------(3)-------4---4--|
A-5----------------(5)-------------\1-------(1)-------2---2--|
E----------------------------------\1-------------------x----|

 Rpt Verse structure.
 Rpt Chorus 2 X

E-------------------------------------------------------------------|
B-------------------------------------------------------------------|
G-------------------------------------------------------------------|
D-------------------------------------------------------------------|
A-2-------------------------(2)-------------------------------------|
E-0-------------------------(0)-------------------------------------|

 Backing for funky clean guitar part.

    [---PM---]                 [---PM---]
E----------------------------------------------------------|
B----------------------------------------------------------|
G----------------------------------------------------------|
D-----------------------------------------------------7/9--|
A-2------------4--4---------5------------7--7---------5/7--|
E-0--0-0-0-0-0-2--2---------3--3-3-3-3-3-5--5--------------|Rpt 2 X

 Funky Clean Guitar

E-----------12p0-12p0-10-10-----10p0-10p0--|
B-12-12--12-12p0-12p0-10--10-10-10p0-10p0--|
G-11--11-11-----------9----9-9-------------|
D------------------------------------------|
A------------------------------------------|
E------------------------------------------| Rpt
 
 Backing for 2nd half of funky clean guitar.

E--------------------------------------------------------|
B--------------------------------------------------------|
G--------------------------------------------------------|
D---------------------------------------------------7/9--|
A-2---2---2---4--4---------5---5---5---7--7---------5/7--|
E-0---0---0---2--2---------3---3---3---5--5--------------|

E--------------------------------------------------------|
B--------------------------------------------------------|
G--------------------------------------------------------|
D---------------------------------------------------7\4--|
A-2---2---2---4--4---------5---5---5---7--7---------5\2--|
E-0---0---0---2--2---------3---3---3---5--5--------------|


E-12-12-12-12-12p10------------10-10-10-10-10--10-10-10---|
B-12-12-12----------12p10------10-10-10-10-10--10-10-10---|
G-11-11-11----------------11-9-9--9--9--------------------|
D---------------------------------------------------------|
A---------------------------------------------------------|
E---------------------------------------------------------| Rpt

 Backing for guitar solo

 [------PM-----] [----PM---]                [--PM--]
E---------------------------------------------------|
B---------------------------------------------------|
G---------------------------------------------------|
D-----------------4-----------5----2----3----4/5-2--|
A-0-2-2-2-2-2-2-0-2-2-222-2-2-3----0----1----2/3-0--|
E---------------------------------------------------|

 [------PM-----] [----PM---]       h h                
E--------------------------------------------------------|
B--------------------------------------------------------|
G--------------------------------------------------------|
D--------------------------------2-3-5p3p2----------4/5--|
A-0-2-2-2-2-2-2-2-2-2-2-2-2-2/3-------------5p3p2-0-2/3--|
E--------------------------------------------------------|

 Rpt above riffs

 Riff A
   [----PM---] [--PM--]    [----PM---] [-PM-]
E--------------------------------------------------|
B--------------------------------------------------|
G--------------------------------------------------|
D-----------------------5---------------------7/9--|
A-2-----------4---------3-5-----------7-------5/7--|
E-0-0-0-0-0-0-2-2-2-2-2---3-3-3-3-3-3-5-5-5-5------| Rpt 4 X

 Rpt guitar solo backing riffs 2 X
 Rpt Riff A 4 X
 Rpt MAin Riff 4 X
                                 Trem Dive
E-------------------------------------------------------------------|
B-------------------------------------------------------------------|
G-------------------------------------------------------------------|
D-------------------------------------------------------------------|
A-2-------------------------(2)\------------------------------------|
E-0-------------------------(0)\------------------------------------|

 Outro

E-----------------------|
B-----------------------|
G-----------------------|
D-----------------------|
A-5p4------------5-5-2--|
E-----5--5-5-4p0-3-3-0--| Rpt 8 x



END
            
Submit corrections

comments powered by Disqus
↑ Back to top | Suicidal Tendencies Tabs for Lovely. Lyrics for acoustic guitar and electric guitar. Tablatures and chords are parodies/interpretations of the original songs. You may use it for private study, scholarship, research or language learning purposes only