>
 >
Lost Again

Lost Again Guitar Tabs

Suicidal Tendencies - Lost Again chords, tabs, tablatures, lyrics

Guitar lessons | Add/correct | Request | Top 50 tabs Artists:  A B C D E F G H I J K L M N O P Q R S T U V W X Y Z 0-9

Lost Again Guitar Tabs – Suicidal Tendencies

CD, Sheet music, Poster

Do you like Lost Again? Share with your friends now
Tabs
Band:  Suicidal Tendencies

Copyright (c)  (Epic) (1990)
Version 1.0 - (11/05/05)



.  - palm mute           /  - slide up to
\  - slide down to       ~  - vibrato
h  - hammer on           b  - Bend
p  - pull off            Suffixes for bend
t  - tap                 f  - full bend    h - half bend
ph - pinched harmonic    q  - quarter bend t - tap bend
*  - see comment         ^  - Hold bend    r release bend
x  - Stuccatto           ~  - vibrato bend
,  - slight palm mute    () - ghost note, sustained note
"  - tremolo note        <> - Trill

Tunning E A D G B E
 

 Intro

E-------------|
B-------------|
G-------------|
D-------------|
A-------------|
E-0-17\-------|

  Guitar 1
E[-------------------------------------------------------------------|
B[-------------------------------------------------------------------|
G[-------------------------------------------------------------------|
D[-------------------------------------------------------------------|
A[-2-------(2)---------2-------(2)---------2-------(2)---------------|
E[-0-------(0)---------0-------(0)---------0-------(0)---------------|
 [
 [Guitar 2
 [       ph~~~~              ph~~~~              ph~~~~
E[-------------------------------------------------------------------|
B[-------------------------------------------------------------------|
G[-------------------------------------------------------------------|
D[-------------------------------------------------------------------|
A[---7---7-------2/3-----3---7-------2/3-----7---8-------2/3---------|
E[-----0-------0-----------0-------0-----------0-------0-------------|


  [-PM-]
E------------------|
B------------------|
G------------------|
D-----5---0---3----|
A---5-------2---2--|
E-3-----1----------|

 Rpt above 2 X

  Guitar 1
                 [PM]            [---PM--]               [PM]
E[-------------------------------------------------------------------|
B[-------------------------------------------------------------------|
G[-------------------------------------------------------------------|
D[-------------------------------------------------------------------|
A[-2-------(2)---------2-------(2)---------2-------(2)---------------|
E[-0-------(0)-----0-0-0-------(0)-0-0-0-0-0-------(0)-----0-0-------|
 [
 [Guitar 2
 [       ph~~~~              ph~~~~              ph~~~~
E[-------------------------------------------------------------------|
B[-------------------------------------------------------------------|
G[-------------------------------------------------------------------|
D[-------------------------------------------------------------------|
A[---7---7-------2/3-----3---7-------2/3-----7---8-------2/3---------|
E[-----0-------0-----------0-------0-----------0-------0-------------|
 [
 [Guitar 3       
 [
E[-------------------------------------------------------------------|
B[-------------------------------------------------------------------|
G[-------------------------------------------------------------------|
D[--7---8----------------7---8---------------7---8-------------------|
A[-------------------------------------------------------------------|
E[----0--------------------0-------------------0---------------------|

  [-PM-]
E------------------|
B------------------|
G------------------|
D-----5---0---3----|
A---5-------2---2--|
E-3-----1----------|

 Main Riff

   [---------PM----------]         [---PM--]               h
E-------------------------------------------------------------|
B-------------------------------------------------------------|
G-------------------------------------------------------------|
D-------------------------------------------------------------|
A-2-----------------------5/77\5-2-----------8-7---6p5--------|
E-0-0-0-0-0-0-0-0000-0-00-3/55\3-0-0-0-000-0-----8-----6p5-7--|

 Main Riff varient

   [---------PM----------]         [---PM--]               
E--------------------------------------------------------|
B--------------------------------------------------------|
G--------------------------------------------------------|
D--------------------------------------------5-----------|
A-2-----------------------5/77\5-2-----------3--5-5-5/7--|
E-0-0-0-0-0-0-0-0000-0-00-3/55\3-0-0-0-000-0----3-3-3/5--|

 Verse
 Rpt Main Riff 2 X


   [-------------PM-------------] [-------------PM-------------]                    
E---------------------------------------------------------------|
B---------------------------------------------------------------|
G---------------------------------------------------------------|
D---------------------------------------------------------------|
A-2------------------------------2------------------------------|
E-0-0-0-0-0-0-0-0000-0-00-0-0-00-0-0-0-0-0-0-0-0000-0-00-0-0-00-|


  Guitar 1
    [-------------PM-------------]  [---PM--]               h                
E[---------------------------------------------------------------|
B[---------------------------------------------------------------|
G[---------------------------------------------------------------|
D[---------------------------------------------------------------|
A[-2------------------------------2-----------8-7---6p5----------|
E[-0-0-0-0-0-0-0-0000-0-00-0-0-00-0-0-0-000-0-----8-----6p5-7----|
 [
 [Guitar 2
E[---------------------------------------------------------------|
B[---------------------------------------------------------------|
G[---------------------------------------------------------------|
D[-12----(12)---\7----(7)--------/9----(9)-----------------------|
A[-10----(10)---\5----(5)--------/7----(7)-----------------------|
E[--------------------------------0----(0)-----------------------|

 Rpt

 Chorus

                  [-PM]                 [-PM]
E----------------------------------------------|
B----------------------------------------------|
G----------------------------------------------|
D----------------------------------------------|
A-5------(5)------5-5-5\3------(3)------3-3-3--|
E-3------(3)------3-3-3\1------(1)------1-1-1--|

   [-------------PM-------------] [-------------PM-------------]                    
E---------------------------------------------------------------|
B---------------------------------------------------------------|
G---------------------------------------------------------------|
D---------------------------------------------------------------|
A-2------------------------------2------------------------------|
E-0-0-0-0-0-0-0-0000-0-00-0-0-00-0-0-0-0-0-0-0-0000-0-00-0-0-00-|

                  [-PM]                 [-PM]
E----------------------------------------------|
B----------------------------------------------|
G----------------------------------------------|
D----------------------------------------------|
A-5------(5)------5-5-5\3------(3)------3-3-3--|
E-3------(3)------3-3-3\1------(1)------1-1-1--|

 Rpt Main Riff 2 X
 Rpt 2nd half of Verse
 Rpt Chorus

 Mid Section

     [---PM---]   [---PM---]  [-PM]  [-PM]        [--PM--]
E---------------------------------------------------------|
B---------------------------------------------------------|
G---------------------------------------------------------|
D-2------------9------------9------9------9---------------|
A-2------------7------------7------7------7-2-2-2---------|
E-0--0-0-0-0-0-0--0-0-0-0-0-0--0-0-0--0-0-0-0-0-0-0-0-0-0-|

 Riff A

  [--PM-]
E--------------------|
B--------------------|
G--------------------|
D--------5-----------|
A-2--------7-5---5-7-|
E-0-0000-------7-----| Rpt 3 X

E-------------------------|
B-------------------------|
G-------------------------|
D-3-----------3-----------|
A---5-3---3-5---5-3---3-5-|
E-------5-----------5-----|

 Rpt above riffs 4 X

 Rpt Verse
 Rpt Chorus
 Rpt Mid Section

 Backing for guitar solo

  [--PM-]
E---------------------|
B---------------------|
G---------------------|
D-2-------------------|
A-0-0000-3------------|
E----------5-3-0-3-5--| Rpt 3 X

E-------------------------|
B-------------------------|
G-3-----------3-----------|
D---5-3---3-5---5-3---3-5-|
A-------5-----------5-----|
E-------------------------|

 Rpt above riffs.

   [-------PM------]
E-------------------|
B-------------------|
G-------------------|
D-------------------|
A-5-----------------|
E-3-3-3-3-3-3-3-3-3-| Rpt 3 X


   [-------PM------]
E-------------------|
B-------------------|
G-------------------|
D-------------------|
A-3-----------------|
E-1-1-1-1-1-1-1-1-1-|

 Rpt above riffs

   [-------PM------]
E-------------------|
B-------------------|
G-------------------|
D-------------------|
A-2-----------------|
E-0-0-0-0-0-0-0-0-0-| Rpt 4 X


E-------------------------------------------------|
B-------------------------------------------------|
G-------------------------------------------------|
D-5-----------5-----------3-----------3-----------|
A---7-5---5-7---7-5---5-7---5-3---3-5---5-3---3-5-|
E-------7-----------7-----------5-----------5-----|

   [-------PM------]  [-PM-]  [-PM-]
E------------------------------------|
B------------------------------------|
G------------------------------------|
D------------------------------------|
A-2-----------------2-------2--------|
E-0-0-0-0-0-0-0-0-0-0-0-0-0-0-0-0-0--|

E-------------------------------------------------|
B-------------------------------------------------|
G-------------------------------------------------|
D-5-----------5-----------3-----------3-----------|
A---7-5---5-7---7-5---5-7---5-3---3-5---5-3---3-5-|
E-------7-----------7-----------5-----------5-----|

 Rpt Above 2 riffs 3 X

      [PM-]           h[---PM----]  h   h h
E----------------------------------------------------|
B----------------------------------------------------|
G----------------------------------------------------|
D----------------------------------------------------|
A-2---2---4/5--12\--------------------3-4-5--5p3-----|
E-0---0-0-2/3--12\--3-5-5-5-5-5-5-3-5------------5p3-|

      [PM-] 
E----------------------------------------|
B----------------------------------------|
G----------------------------------------|
D---------------------7----------5-------|
A-2---2---4/5--12\----5----7-----3----5--|
E-0---0-0-2/3--12\--x----x-5--x----x--3--|

 Rpt above riffs

      [PM-]           h[---PM----]  h   h h
E----------------------------------------------------|
B----------------------------------------------------|
G----------------------------------------------------|
D----------------------------------------------------|
A-5---5---7/8--12\--------------------6-7-8--8p6-----|
E-3---3-3-5/6--12\--6-8-8-8-8-8-8-6-8------------8p6-|

E---------------------------------------|
B---------------------------------------|
G---------------------------------------|
D---------------------10--------8-------|
A-5---5---7/8--12\----8----10---6----8--|
E-3---3-3-5/6--12\--x----x-8--x----x-6--|

 Rpt above riffs

E--------------------------|
B--------------------------|
G--------------------------|
D---6---------4------------|
A---4----6----2----4----3--|
E-x----x-4--x----x-2--x-1--|




END





Comments


Popular Suicidal Tendencies tabs & chords
Accept My Sacrifice 1 Bass Tabs
Naked 1 Bass Tabs
Send Me Your Money 1 Bass Tabs
Cyco Vision Tabs
Half Way Up My Head Tabs
Heaven Tabs
Institutionalized 1 Tabs
No Fucking Problem Tabs
Send Me Your Money Tabs
Subliminal Tabs


Song lyrics



↑ Back to top | Tablatures and chords are parodies/interpretations of the original songs. You may use it for private study, scholarship, research or language learning purposes only
© 2014 AZChords.com Contact us | Privacy policy | DMCA | Add/correct tabs | Request tabs | Top 50 tabs