» » »

I Want More Tabs (ver.1)

Artists:  A B C D E F G H I J K L M N O P Q R S T U V W X Y Z # 

I Want More Tabs (ver.1)

Suicidal Tendencies
Rating:
5/5 (1 vote)

Hard to play? Try these video lessons and learn fast.
                Band:  Suicidal Tendencies

Copyright (c)  (Virgin) (1983)
Version 1.0 - (07/06/05)



.  - palm mute           /  - slide up to
\  - slide down to       ~  - vibrato
h  - hammer on           b  - Bend
p  - pull off            Suffixes for bend
t  - tap                 f  - full bend    h - half bend
ph - pinched harmonic    q  - quarter bend t - tap bend
*  - see comment         ^  - Hold bend    r release bend
x  - Stuccatto           ~  - vibrato bend
,  - slight palm mute    () - ghost note, sustained note
"  - tremolo note        <> - Trill

Tunning E A D G B E
 

 Intro

                                         To feedback               
E-------------------------------------------------------------------|
B-------------------------------------------------------------------|
G-9---------------------------(9)-----------------------------------|
D-9---------------------------(9)-----------------------------------|
A-7---------------------------(7)-----------------------------------|
E--------------------------------------------------------------15\--|

 Verse

    [-----PM-----]    [-----PM-----]
E------------------------------------|
B------------------------------------|
G------------------------------------|
D------------------------------------|
A-3--3-3-3-3-3-3-3/5--5-5-5-5-5-5-5--|
E-1--1-1-1-1-1-1-1/3--3-3-3-3-3-3-3--|
    [-----PM-----]    [-----PM-----]
E------------------------------------|
B------------------------------------|
G------------------------------------|
D-2--2-2-2-2-2-2-2-2--2-2-2-2-2-2-2--|
A-0--0-0-0-0-0-0-0-0--0-0-0-0-0-0-0--|
E------------------------------------|

    [-----PM-----]    [-----PM-----]
E------------------------------------|
B------------------------------------|
G------------------------------------|
D------------------5--5-5-5-5-5-5-5--|
A-5--5-5-5-5-5-5-5-3--3-3-3-3-3-3-3--|
E-3--3-3-3-3-3-3-3-------------------|
    [-----PM-----]    [-----PM-----]
E------------------------------------|
B------------------------------------|
G------------------------------------|
D-2--2-2-2-2-2-2-2-2--2-2-2-2-2-2-2--|
A-0--0-0-0-0-0-0-0-0--0-0-0-0-0-0-0--|
E------------------------------------|

    [-----PM-----]    [-----PM-----]
E------------------------------------|
B------------------------------------|
G------------------------------------|
D------------------------------------|
A-3--3-3-3-3-3-3-3/5--5-5-5-5-5-5-5--|
E-1--1-1-1-1-1-1-1/3--3-3-3-3-3-3-3--|
    
E--------------------------------|
B--------------------------------|
G------------4/6-6/7-7\6-6\4-4-2-|
D-2--2--2-2--2/4-4/5-5\4-4\2-2-0-|
A-0--0--0-0----------------------|
E--------------------------------|

    [-----PM-----]    [-----PM-----]
E------------------------------------|
B------------------------------------|
G------------------------------------|
D------------------5--5-5-5-5-5-5-5--|
A-5--5-5-5-5-5-5-5-3--3-3-3-3-3-3-3--|
E-3--3-3-3-3-3-3-3-------------------|
    
E------------------------------------|
B------------------------------------|
G------------------------------------|
D-2-------------(2)------------------|
A-0-------------(0)------------------|
E------------------------------------|

 Chorus

E--------------------------------------------------------|
B------------3-------------------------------------------|
G-2---22-----2-2---22-----22-2---22---55/7-2---22-2---22-|
D-2-2222-----0-2-2222-2-2222-2-2222---55/7-2-2222-2-2222-|
A-0-0000-5\4---0-0000-0-0000-0-0000-5-33/5-0-0000-0-0000-|
E--------3\2------------------------3--------------------| Rpt

E------------------------------------12----|
B------------------------------------15fb--|
G------------------------------9-----------|
D------------------------5/7/8/9-----------|
A-99999999-55555555-3333-3/5/6/7-----------|
E-77777777-33333333-1111-------------------|

E---------------------------------------------|
B---------------------------------------------|
G---------------------------------------------|
D------------------------5/7/8----------------|
A-99999999-55555555-3333-3/5/6/7------(7)-----|
E-77777777-33333333-1111-------0------(0)-----|

E--------------------------------------------------------|
B------------3-------------------------------------------|
G-2---22-----2-2---22-----22-2---22---55/7-2---22-2---22-|
D-2-2222-----0-2-2222-2-2222-2-2222---55/7-2-2222-2-2222-|
A-0-0000-5\4---0-0000-0-0000-0-0000-5-33/5-0-0000-0-0000-|
E--------3\2------------------------3--------------------| Rpt 4 X

E------------------------------------12----|
B------------------------------------15fb--|
G------------------------------9-----------|
D------------------------5/7/8/9-----------|
A-99999999-55555555-3333-3/5/6/7-----------|
E-77777777-33333333-1111-------------------|

E---------------------------------------------|
B---------------------------------------------|
G---------------------------------------------|
D------------------------5/7/8----------------|
A-99999999-55555555-3333-3/5/6/7------(7)-----|
E-77777777-33333333-1111-------0------(0)-----|

 Rpt Intro and Verse

 This varient appears halfway through Verse.
    [-----PM-----]    
E------------------------------------|
B------------------------------------|
G-------------------------2---2------|
D-2--2-2-2-2-2-2-2-2--2-1---1---1----|
A-0--0-0-0-0-0-0-0-0--0-----------x\-|
E---------------------------------x\-|

 Rpt Chorus




END
            
Hard to play? Try these video lessons and learn fast. | Correct




comments powered by Disqus
↑ Back to top | Tablatures and chords are parodies/interpretations of the original songs. You may use it for private study, scholarship, research or language learning purposes only