» » »

If I Don't Wake Up Tabs (ver.1)

Artists:  A B C D E F G H I J K L M N O P Q R S T U V W X Y Z # 

If I Don't Wake Up Tabs (ver.1)

Suicidal Tendencies
Rating:
0/5 (0 votes)

Hard to play? Try these video lessons and learn fast.
                #------------------------------------------------------------------------------##

Suicidal Tendencies - If I don't wake up

just the riffs - no timing - hope you like it anyway
sortof in the order that they first appear.

g-----------9------------------------5---------------
d---2-------9-----7/9-7-------3------5---------------
a---2-------7-----5/7-5-------3------3---------------
e---0---------------------0-0-1--0-0----0-0----------

g-----------9------------------------5---------------
d---2-------9-----7/9-7-------3------5---------------
a---2-------7-----5/7-5-------3------3---(slow dive)-
e---0---------------------0-0-1--0-0-----------------

d-------2-----3-----2-----3---0^2--------------------
a-------2-----3-----2-----3---0^2--------------------
e---0-0-0-0-0-1-0-0-0-0-0-1-0------------------------

d-------2--------------------------------------------
a-------2----------333-33-333-33-333-33-333-33-------
e---0-0-0--------0-111-11-111-11-111-11-111-11-------

g---0^2-2--2-2--0^2---5---5---0^2-2----0--2--3-------
d---0^2-2--2-2--0^2-x-5-x-5---0^2-2----0--2--3--3----
a---0---0--0-0--0---x-3-x-3---0---0--x-0--0--1--3----
e-----------------------------------------------1----

These go in sequence as numbered (quick)
1 & 3.
d-----4------4-4-4-4--4-4-4-4----7---7---------------
a---0-2-2-2--2-2-2-2--2-2-0-2--x-5-0-5---------------

2.
d-----4------4-4-4-4--4-4-4-4----5---5---------------
a---0-2-2-2--2-2-2-2--2-2-0-2--x-3-0-3---------------

4.
d-----4------4-4-4-4--4-4-4-4----5---5--4------------
a---0-2-2-2--2-2-2-2--2-2-0-2--x-3-0-3--2------------

g---------------4/5--4------------5------7-----------
d---2-----------4/5--4------------5------7-----------
a---2-----------2/3--2------------3------5-----------
e---0-0-0-0-0-0---------0-0-0-0-0----0-0-------------

d---4-----------5-----------2---5--7/5----2---7--5\4-
a---4-----------5-----------0-0-3--5/3--x-0-0-5--3\2-
e---2-2-2-2-2-2-3-3-3-3-3-3--------------------------

d---4-----------5-----------7------------------------
a---4-----------5-----------7------------------------
e---2-2-2-2-2-2-3-3-3-3-3-3-5-5-5-5-5-5-5-0(dive)----

Matthew Johnson.
            
Hard to play? Try these video lessons and learn fast. | Correct




comments powered by Disqus
↑ Back to top | Tablatures and chords are parodies/interpretations of the original songs. You may use it for private study, scholarship, research or language learning purposes only