>
 >
Hearing Voices 1

Hearing Voices 1 Guitar Tabs

Suicidal Tendencies - Hearing Voices 1 chords, tabs, tablatures, lyrics

Guitar lessons | Add/correct | Request | Top 50 tabs Artists:  A B C D E F G H I J K L M N O P Q R S T U V W X Y Z 0-9

Hearing Voices 1 Guitar Tabs – Suicidal Tendencies

CD, Sheet music, Poster

Do you like Hearing Voices 1? Share with your friends now
TabsTabs v2
Band:  Suicidal Tendencies

Copyright (c)  (Virgin) (1988)
Version 1.0 - (30/03/05)



.  - palm mute           /  - slide up to
\  - slide down to       ~  - vibrato
h  - hammer on           b  - Bend
p  - pull off            Suffixes for bend
t  - tap                 f  - full bend    h - half bend
ph - pinched harmonic    q  - quarter bend t - tap bend
*  - see comment         ^  - Hold bend    r release bend
x  - Stuccatto           ~  - vibrato bend
,  - slight palm mute    () - ghost note, sustained note
"  - tremolo note        <> - Trill

Tunning E A D G B E
 

 Intro

 Guitar 1
  [-----------------------PM---------------------------]
E[-------------------------------------------------------|
B[-------------------------------------------------------|
G[-------------------------------------------------------|
D[-------------------------------------------------------|
A[-7-7-7-7p5-7p5-7-7-7-7-7-7-7-7-7-5-5-5-5-8-8-8\7-7-7-7-|
E[-------------------------------------------------------|
 [
 [Guitar 2
 [               ~~~~~~~~~~~~~~~~~  ~~~~~ ~~~~~   ~~~~~~
E[-------------------------------------------------------|
B[-------------------------------------------------------|
G[-------------------------------------------------------|
D[-------------------------------------------------------|
A[---------5-7p5-7-----------------8-----5-----8\7-------|
E[-0-----------------------------------------------------|

 Guitar 1
  [-----------------------PM---------------------------]
E[-------------------------------------------------------|
B[-------------------------------------------------------|
G[-------------------------------------------------------|
D[-------------------------------------------------------|
A[-7-7-7-7p5-7p5-7-7-7-7-7-7-7-7-7-5-5-5-5-8-8-8\7-7-7-7-|
E[-------------------------------------------------------|
 [
 [Guitar 2
 [               ~~~~~~~~~~~~~~~~~  ~~~~~ ~~~~~   ~~~~~~
E[-------------------------------------------------------|
B[-------------------------------------------------------|
G[-------------------------------------------------------|
D[-------------------------------------------------------|
A[---------5-7p5-7-----------------8-----10----8\7-------|
E[-0-----------------------------------------------------|

 Guitar 1
  [-----------------------PM---------------------------]
E[-------------------------------------------------------|
B[-------------------------------------------------------|
G[-------------------------------------------------------|
D[-------------------------------------------------------|
A[-7-7-7-7p5-7p5-7-7-7-7-7-7-7-7-7-5-5-5-5-8-8-8\7-7-7-7-|
E[-------------------------------------------------------|
 [
 [Guitar 2
 [               ~~~~~~~~~~~~~~~~~  ~~~~~ ~~~~~   ~~~~~~
E[-------------------------------------------------------|
B[-------------------------------------------------------|
G[-------------------------------------------------------|
D[-------------------------------------------------------|
A[---------5-7p5-7-----------------8-----5-----8\7-------|
E[-0-----------------------------------------------------|

 Guitar 1
  [-----------------------PM------------------------]
E[---------------------------------------------------------------|
B[---------------------------------------------------------------|
G[---------------------------------------------------------------|
D[---------------------------------------------------9-9-9-9-9-9-|
A[-7-7-7-7p5-7p5-7-7-7-7-7-7-7-7-7-5-5-5-5-8-8-8\7-7-7-7-7-7-7-7-|
E[---------------------------------------------------------------|
 [
 [Guitar 2
 [                                     ph~~~ph~~~~~~~~~~~~~~~~~~
E[---------------------------------------------------------------|
B[---------------------------------------------------------------|
G[---------------------------------------------------------------|
D[-----------------2p0-3p0-5p0-7p0-5p0-10bbr9--------------------|
A[---------5-7p5-7-----------------------------------------------|
E[-0-------------------------------------------------------------|


 Main Riff

  [PM]   [--PM--]
E------------------------------|
B------------------------------|
G------------------------------|
D------------------------------|
A-2-2-7/8-2-2-2-2-7/8---5/7/8--|
E-0-0-5/6-0-0-0-0-5/6-0-3/5/6--|

  Guitar 1
   [PM]   [--PM--]
E[------------------------------|
B[------------------------------|
G[------------------------------|
D[------------------------------|
A[-2-2-7/8-2-2-2-2-7/8---5/7/8--|
E[-0-0-5/6-0-0-0-0-5/6-0-3/5/6--|
 [
 [Guitar 2
 [ [PM]   [--PM--]
E[------------------------------|
B[------------------------------|
G[------------------------------|
D[------------------------------|
A[-----------------------5/7/8--|
E[-----------------------3/5/6--| Rpt 3 X

 Rpt Main Riff 4 X

 Verse Riff

  [----------PM----------]     [PM]   [PM] PM    PM
E----------------------------------------------------------|
B----------------------------------------------------------|
G----------------------------------------------------------|
D-----------------------------------2-----3---3\2---0-00-2-|
A-2-2-2-2-2-2-2-2-2-2-2-2-5/7/8-----2-----3---3\2---0-00-2-|
E-0-0-0-0-0-0-0-0-0-0-0-0-3/5/6-0-0---0-0---0-----0--------|Rpt 4 X

 Bridge

   [--PM--]      [--PM--]
E-------------------------------|
B-------------------------------|
G-------------------------------|
D-------------------------2--4--|
A---4-4-4-4-7\5---4-4-4-4-0--2--|
E-0-2-2-2-2-5\3-0-2-2-2-2-------| Rpt 4 X

 Chorus

 Guitar 1
  [-----------------------PM---------------------------]
E[-------------------------------------------------------|
B[-------------------------------------------------------|
G[-------------------------------------------------------|
D[-------------------------------------------------------|
A[-7-7-7-7p5-7p5-7-7-7-7-7-7-7-7-7-5-5-5-5-8-8-8\7-7-7-7\|
E[-----------------0-0-0-0-0-0-0-0---------------0-0-0-0\|
 [
 [Guitar 2
 [               ~~~~~~~~~~~~~~~~~  ~~~~~ ~~~~~   ~~~~~~
E[-------------------------------------------------------|
B[-------------------------------------------------------|
G[-------------------------------------------------------|
D[-------------------------------------------------------|
A[---------5-7p5-7-----------------8-----5-----8\7-------|
E[-0-----------------------------------------------------|

 Guitar 1
                  [------PM------]                 [------PM-----]
E[----------------------------------------------------------------|
B[----------------------------------------------------------------|
G[----------------------------------------------------------------|
D[-2--(2)--0-2-0-2-----------------0-------3-----2--2-0-2/3\2-0---|
A[-2--(2)--0-2-0-2-2-2-2-2-2-2-2-2-0-------3-----2--2-0-2/3\2-0---|
E[-----------------0-0-0-0-0-0-0-0------------------------------3-|
 [
 [Guitar 2
 [               ~~~~~~~~~~~~~~~~~  ~~~~~ ~~~~~   ~~~~~~
E[----------------------------------------------------------------|
B[----------------------------------------------------------------|
G[----------------------------------------------------------------|
D[----------------------------------------------------------------|
A[---------5-7p5-7-----------------8-----5-----8\7----------------|
E[-0--------------------------------------------------------------|

 Guitar 1
  [-----------------------PM---------------------------]
E[-------------------------------------------------------|
B[-------------------------------------------------------|
G[-------------------------------------------------------|
D[-------------------------------------------------------|
A[-7-7-7-7p5-7p5-7-7-7-7-7-7-7-7-7-5-5-5-5-8-8-8\7-7-7-7\|
E[-----------------0-0-0-0-0-0-0-0---------------0-0-0-0\|
 [
 [Guitar 2
 [               ~~~~~~~~~~~~~~~~~  ~~~~~ ~~~~~   ~~~~~~
E[-------------------------------------------------------|
B[-------------------------------------------------------|
G[-------------------------------------------------------|
D[-------------------------------------------------------|
A[---------5-7p5-7-----------------8-----5-----8\7-------|
E[-0-----------------------------------------------------|

 Guitar 1
                  [------PM------]                 
E[-----------------------------------------------------|
B[-----------------------------------------------------|
G[-----------------------------------------------------|
D[-2--(2)--0-2-0-2-----------------0-------3-----2-----|
A[-2--(2)--0-2-0-2-2-2-2-2-2-2-2-2-0-------3-----2-----|
E[-----------------0-0-0-0-0-0-0-0---------------------|
 [
 [Guitar 2
 [               ~~~~~~~~~~~~~~~~~  ~~~~~ ~~~~~   ~~~~~
E[-----------------------------------------------------|
B[-----------------------------------------------------|
G[-----------------------------------------------------|
D[-----------------------------------------------------|
A[---------5-7p5-7-----------------8-----5-----8\7-----|
E[-0---------------------------------------------------|

 Rpt Main Riff 4 X
 Rpt Verse, Bridge and Chorus
 Rpt Bridge and Chorus for guitar solo backing.

 Rpt Main Riff on own once
 Rpt main riff with crashes 3 X
 Rpt Main Riff 4 X
 Rpt Verse, Bridge.
 Rpt Intro 

 Additional guitar enters 3rd time.
                ~~~~~~~~~~~~~~~~~  ~~~~~ ~~~~~   ~~~~~~
E-------------------------------------------------------|
B-------------------------------------------------------|
G-------------------------------------------------------|
D-------9p7-9p7-9-----------------10----7-----10\9------|
A-------------------------------------------------------|
E-------------------------------------------------------|

 Additional guitar enters 4th time
                                   ~~~~~        ~~~~~~~~
E---------------------------------------------12b12br12-|
B-------------------------------------------------------|
G---------------------------------7---------------------|
D-------------------------------------------------------|
A-------------------------------------------------------|
E-------------------------------------------------------|

 Outro

  Guitar 1
   [PM]   [--PM--]
E[------------------------------|
B[------------------------------|
G[------------------------------|
D[------------------------------|
A[-2-2-7/8-2-2-2-2-7/8---5/7/8--|
E[-0-0-5/6-0-0-0-0-5/6-0-3/5/6--|
 [
 [Guitar 2
 [ [PM]   [--PM--]
E[------------------------------|
B[------------------------------|
G[------------------------------|
D[------------------------------|
A[-----------------------5/7/8--|
E[-----------------------3/5/6--|
 [Guitar 3
 [  ~~~~~~~~~~~~~~~~~~~~~~~~~~~~
E[-22b--------------------------|
B[------------------------------|
G[------------------------------|
D[------------------------------|
A[------------------------------|
E[------------------------------|

  Guitar 1
   [PM]   [--PM--]
E[------------------------------|
B[------------------------------|
G[------------------------------|
D[------------------------------|
A[-2-2-7/8-2-2-2-2-7/8---5/7/8--|
E[-0-0-5/6-0-0-0-0-5/6-0-3/5/6--|
 [
 [Guitar 2
 [ [PM]   [--PM--]
E[------------------------------|
B[------------------------------|
G[------------------------------|
D[------------------------------|
A[-----------------------5/7/8--|
E[-----------------------3/5/6--|
 [Guitar 3
 [  ~~~~~~~~~~~~~~~~~~~~~~~~
E[-(22b)--------------------22r-|
B[------------------------------|
G[------------------------------|
D[------------------------------|
A[------------------------------|
E[------------------------------|

  Guitars 1 & 2
E[-------|
B[-------|
G[-------|
D[-2-----|
A[-2-----|
E[-0-----|
 [
 [Guitar 3
E[-22\---|
B[-------|
G[-------|
D[-------|
A[-------|
E[-------|




END





Comments


Popular Suicidal Tendencies tabs & chords
Gaigan Go Home Tabs
Institutionalized 4 Tabs
One Too Many Times Tabs
Possessed To Skate 1 Tabs
Subliminal Tabs
Subliminal 1 Tabs
Suicidal Failure Tabs
Trip At The Brain Tabs
Waking The Dead 1 Tabs
I Saw Your Mommy Ukulele


Song lyrics



↑ Back to top | Tablatures and chords are parodies/interpretations of the original songs. You may use it for private study, scholarship, research or language learning purposes only
© 2014 AZChords.com Contact us | Privacy policy | DMCA | Add/correct tabs | Request tabs | Top 50 tabs