>
 >
Give It Revolution

Give It Revolution Guitar Tabs

Suicidal Tendencies - Give It Revolution chords, tabs, tablatures, lyrics

Guitar lessons | Add/correct | Request | Top 50 tabs Artists:  A B C D E F G H I J K L M N O P Q R S T U V W X Y Z 0-9

Give It Revolution Guitar Tabs – Suicidal Tendencies

CD, Sheet music, Poster

Do you like Give It Revolution? Share with your friends now
Tabs
Band:  Suicidal Tendencies

Copyright (c)  (Epic) (1990)
Version 1.0 - (09/05/05)



.  - palm mute           /  - slide up to
\  - slide down to       ~  - vibrato
h  - hammer on           b  - Bend
p  - pull off            Suffixes for bend
t  - tap                 f  - full bend    h - half bend
ph - pinched harmonic    q  - quarter bend t - tap bend
*  - see comment         ^  - Hold bend    r release bend
x  - Stuccatto           ~  - vibrato bend
,  - slight palm mute    () - ghost note, sustained note
"  - tremolo note        <> - Trill

Tunning E A D G B E
 

Intro

  Guitar 1
  [PM]   [PM]  [PM]  [PM]  [PM] PM
E[------------------------------------------|
B[------------------------------------------|
G[------------------------------------------|
D[-----5-----5-----4-----4-----4---2--(2)---|
A[-----7-----7-----5-----5-----5---3--(3)---|
E[-0-0---0-0---0-0---0-0---0-0---0----------|
 [
 [Guitar 2 Cleanish tone
E[------------------------------------------|
B[----------------------------------------3-|
G[--------------------------------------0---|
D[------------------------------------2-----|
A[------------------------------------------|
E[------------------------------------------| Rpt 4 X

               ~~
E------------------|
B------------------|
G------------------|
D------------------|
A-3-2-0---0--------|
E-------3---3-2----|

 Main Riff

   [PM]   [PM] [PM]       [PM] [PM]       [-PM-]
E-------------------------------------------------|
B-------------------------------------------------|
G-------------------------------------------------|
D-------5-----------5-7\------5-----4--4\2-2-2-2--|
A-2-----7-----2-----7-7\2-----7-----5--5\3-3-3-3--|
E-0-0-0---0-0-0-0-0-----0-0-0---0-0---------------| Rpt 4 X

 Additional guitar appears 1st and 3rd time of Main Riff.
 Cleanish tone
E-------------------------------------------------|
B-----------------------------------------------0-|
G---------------------------------------------0---|
D-------------------------------------------2-----|
A-----------------------------------------3-------|
E-------------------------------------------------|

 Verse
          [PM]                            [PM]
E-------------------------------------------------------------------|
B-------------------------------------------------------------------|
G-------------------------------------------------------------------|
D-------------------------------------------------------------------|
A-3-----------3-----3-2-0---0-----2-----------2-----3-2-0---0-------|
E-1-------1-1-1-----------3---3-2-0-------0-0-0-----------3---3-2---|

          [PM]                            [PM]
E-------------------------------------------------------------------|
B-------------------------------------------------------------------|
G-------------------------------------------------------------------|
D-------------------------------------------------------------------|
A-3-----------3-----3-2-0---0-----2-----------2-----3-2-0-3p2p0---0-|
E-1-------1-1-1-----------3---3-2-0-------0-0-0-----------------3---|

          [PM]                            [PM]
E-------------------------------------------------------------------|
B-------------------------------------------------------------------|
G-------------------------------------------------------------------|
D-------------------------------------------------------------------|
A-3-----------3-----3-2-0---0-----2-----------2-----3-2-0---0-------|
E-1-------1-1-1-----------3---3-2-0-------0-0-0-----------3---3-2---|

          [PM]                    [--------------PM--------------]
E-----------------------------------------------------------------|
B-----------------------------------------------------------------|
G-----------------------------------------------------------------|
D-----------------------------------------------------------------|
A-3-----------3-----3-2-0---0-----2-2-2-2-2-2-2-2-2-2-2-2-2-2-2-2-|
E-1-------1-1-1-----------3---3-2-0-0-0-0-0-0-0-0-0-0-0-0-0-0-0-0-|

 Rpt Main Riff 4 X
 Rpt Verse

 Chorus

   [PM]  [-PM-]          [PM]               [----PM---]
E---------------------------------------------------------|
B---------------------------------------------------------|
G-------5-------8p7-5-7/8---------------------------------|
D-2-----5-------8p7-5-7/8--------------------7-7-7-7-7/9--|
A-0-0-0---0-0-0-----------0-0-5--(5)--5-3----8-8-8-8-8/10-|
E-----------------------------3--(3)--3-1-----------------| Rpt 4 X

 Mid Section

   [PM]   [PM]  [PM]  [PM]    [PM]   [PM]  [PM]
E-------------------------------------------------------------|
B-------------------------------------------------------------|
G-7-----7-----7-----7-----5-7------7-----7-----9-(9)----------|
D-5-----5-----5-----5-----5-7------5-----5-----7-(7)-5-----2--|
A---0-0---0-0---0-0---0-0------0-0---0-0---0-0-------3--5--0--|
E-----------------------------------------------------3-------|

   [PM]   [PM]  [PM]  [PM]    [PM]   [PM]  [PM]      [---PM---]
E------------------------------------------------------------------|
B------------------------------------------------------------------|
G-7-----7-----7-----7-----5-7------7-----7-----9-(9)---------------|
D-5-----5-----5-----5-----5-7------5-----5-----7-(7)-5----------2--|
A---0-0---0-0---0-0---0-0------0-0---0-0---0-0-------3-3-3-5-5--0--|
E--------------------------------------------------------3-3-------|

 Rpt

   [PM]   [PM]  [PM]  [PM]    [PM]   [PM]  [PM]
E-------------------------------------------------------------------|
B-------------------------------------------------------------------|
G-7-----7-----7-----7-----5-7------7-----7-----9-(9)----------------|
D-5-----5-----5-----5-----5-7------5-----5-----7-(7)-3-2-0---0------|
A---0-0---0-0---0-0---0-0------0-0---0-0---0-0-------------3---3-2--|
E-------------------------------------------------------------------|

 Backing for guitar solo is Main Riff 4 X
 Followed by Verse Riffs
 
 
 [PM]   [PM]  [PM] [PM]  PM    [PM]  [PM]  [PM]  [PM]   PM
E--------------------------------------------------------------|
B--------------------------------------------------------------|
G--------------------------------------------------------------|
D-----5-----5-----4-----2---2-2-----5-----5-----7-----9---5-7--|
A-----7-----7-----5-----3---3-3-----7-----7-----9-----10--7-7--|
E-0-0---0-0---0-0---0-0---0-----0-0---0-0---0-0---0-0---0------|

 [PM]   [PM]  [PM] [PM]  PM    [PM]  [PM]  [PM]  [---PM---]   
E---------------------------------------------------------------|
B---------------------------------------------------------------|
G---------------------------------------------------------------|
D-----5-----5-----4-----2---2-2-----5-----5-----7---------------|
A-----7-----7-----5-----3---3-3-----7-----7-----9-----------5-7-|
E-0-0---0-0---0-0---0-0---0-----0-0---0-0---0-0---00057-5-7-----|

 [PM]   [PM]  [PM] [PM]  PM    [PM]  [PM]  [PM]  [PM]   PM
E--------------------------------------------------------------|
B--------------------------------------------------------------|
G--------------------------------------------------------------|
D-----5-----5-----4-----2---2-2-----5-----5-----7-----9---5-7--|
A-----7-----7-----5-----3---3-3-----7-----7-----9-----10--7-7--|
E-0-0---0-0---0-0---0-0---0-----0-0---0-0---0-0---0-0---0------|Rpt

  [--PM--]   [--PM--]   [PM]   [--PM--]   [--PM--]   [PM]
E-----------------------------------------------------------|
B-----------------------------------------------------------|
G-----------------------------------------------------------|
D-----------------------------------------------------------|
A-3-------3--3-------3--3---3--2-------2--2-------2--2---2--|
E-1-1-1-1-1--1-1-1-1-1--1-1-1--0-0-0-0-0--0-0-0-0-0--0-0-0--| Rpt 3 X

  [--PM--]   [--PM--]   [PM]   
E------------------------------|
B------------------------------|
G------------------------------|
D------------------------------|
A-3-------3--5-------5--3---3--|
E-1-1-1-1-1--3-3-3-3-3--1-1-1--|

 Rpt above sections again

 Ending

 [----PM---]  [---PM--]
E-------------------------|
B-------------------------|
G-------------------------|
D-------------------------|
A---3---3--------3---3-2--|
E-0-1p0-1p0----0-1p0-1p0--|


END





Comments


Popular Suicidal Tendencies tabs & chords
Go Skate 1 Bass Tabs
Built To Survive Tabs
Cyco Vision 2 Tabs
Disco's Out, Murder's In Tabs
Fascist Pig 1 Tabs
Get Sick Tabs
Get Whacked Tabs
Hearing Voices Tabs
I'll Hate You Better Tabs
If I Don't Wake Up Tabs


Song lyrics



↑ Back to top | Tablatures and chords are parodies/interpretations of the original songs. You may use it for private study, scholarship, research or language learning purposes only
© 2014 AZChords.com Contact us | Privacy policy | DMCA | Add/correct tabs | Request tabs | Top 50 tabs