>
 >
Freedumb

Freedumb Guitar Tabs

Suicidal Tendencies - Freedumb chords, tabs, tablatures, lyrics

Guitar lessons | Add/correct | Request | Top 50 tabs Artists:  A B C D E F G H I J K L M N O P Q R S T U V W X Y Z 0-9

Freedumb Guitar Tabs – Suicidal Tendencies

CD, Sheet music, Poster

Do you like Freedumb? Share with your friends now
Bass TabsBass Tabs v2Tabs
#This OLGA file is the author's own work and represents their interpretation  #
#research. Remember to view this file in Courier, or some other monospaced    #



 > song : Freedumb
 > album : Freedumb, Six The Hard Way (EP)
 > artist : Suicidal Tendencies
 > written by : Mike Muir, Josh Paul, Dean Pleasants, Mike Clark

 ---------------------------------------------------------------------
 Oh boy, I saw there was no tab from "Six The Hard Way" on the net, so
  I posted FREEDUMB and CYCO VISION... "New songs played the only way
   Suicidal knows how to play punk rock : the hard way !". These two
    songs kick ass, and they're pretty easy to play, so let's rock!
 ---------------------------------------------------------------------

 Guitars have a big disto tone, but does it need to be mentionned ? ;-)

 

   | p = pull-off
   | h = hammer
 e-|--------------------------------------------------------------------|

 B-|--------------------------------------------------------------------|

 G-|--------------------------------------------------------------------|

 D-|--------------------------------------------------------------------|

 A-|--5p6h3p5---3-5-----3-5-6-5-3------5---3-5---3-5-----3-5-6-5-3------|

 E-|-------------------------------5-3-----------------------------5-3--|

    Play this twice, then...

       C#5  D5
 e-|-------------------|
 B-|-------------------|
 G-|----6---7----------|
 D-|----6---7----------|
 A-|----4---5----------|
 E-|-------------------|

 

       F5         C5           G#5
 e-|------------------------------------------------|
 B-|------------------------------------------------|
 G-|--10-10---10---------------13-13-13-13-13-13-13-| Play this 4 times
 D-|--10-10---10-10-10---10-10-13-13-13-13-13-13-13-| before singing
 A-|--8--8----8--10-10---10-10-11-11-11-11-11-11-11-|
 E-|-------------8--8----8--8-----------------------|

       F5         C5           G#5
      Peace                      .....
       F5         C5           G#5
     
       F5         C5           G#5
    
       F5         C5           G#5
   

 

      A5          C5    D5 G5 A5       D#5   D5   G5
 e-|--------------------------------------------------|
 B-|--------------------------------------------------|
 G-|--------------------------------------------------| Play this 4 times
 D-|--------------5-----7--------------8--8--7--7-----| before singing
 A-|--7--7--7--7--3-----5--5--7-----7--6--6--5--5--5--|
 E-|--5--5--5--5-----------3--5-----5--------------3--|

      A5          C5    D5 G5 A5       D#5   D5   G5  \  The "Freedom !"
part
      Freedom !                                       /  is played 4
times

 

 B-G-|---------------------------------------------------| Just slap
 A-D-|--------5-----------7-----------8-----------10-----| and pluck !
 S-A-|--------5-----------7-----------8-----------10-----|
 S-E-|--3--3-----3--5--5-----5--6--6-----6--8--8------8--|
     |
     |  G5                                          C5 (with a huge slide)
 G-e-|---------------------------------------------------|
 U-B-|---------------------------------------------------|
 I-G-|---------------------------------------------------|
 T-D-|--5------------------------------------------10\\--|
 A-A-|--5------------------------------------------10\\--|
 R-E-|--3-------------------------------------------8\\--|

 And then play the following part 3 times

 B-G-|--------------------------------------------------|
 A-D-|--------------------------------------------------|
 S-A-|--------------------------------------------------|
 S-E-|--3--3--3--3--5--5--5--5--6--6--6--6--8--8--8--8--|
     |
     |  G5          A5          A#5         C5
 G-e-|---------------------------------------------------|
 U-B-|---------------------------------------------------|
 I-G-|---------------------------------------------------|
 T-D-|--5--5--5--5--7--7--7--7--8--8--8--8--10-10-10-10--|
 A-A-|--5--5--5--5--7--7--7--7--8--8--8--8--10-10-10-10--|
 R-E-|--3--3--3--3--5--5--5--5--6--6--6--6--8--8--8--8---|


 B-G-|--------------------------------------------------|
 A-D-|--------------11----------------------11----------|
 S-A-|-----------11----11----------------11----11-------|
 S-E-|--9-----9-----------9-----9-----9-----------9-----|
     |
     |  C#5                     (******* LYRICS *******)x3
 G-e-|--------------------------------------------------|
 U-B-|--------------------------------------------------|
 I-G-|--------------------------------------------------|
 T-D-|--11----11----11----11----11----11----11----11----|
 A-A-|--11----11----11----11----11----11----11----11----|
 R-E-|--9-----9-----9-----9-----9-----9-----9-----9-----|

 And the 4th time is the same until the C#5, which is :

 B-G-|--------------------------------------------------|
 A-D-|--------------11----------------------------------|
 S-A-|-----------11----11-------------------------------|
 S-E-|--9-----9-----------9-----9-----9-----9---8---7---|
     |
     |  C#5                                     C5  B5
 G-e-|--------------------------------------------------|
 U-B-|--------------------------------------------------|
 I-G-|--------------------------------------------------|
 T-D-|--11----11----11----11----11----11----11--10--9---|
 A-A-|--11----11----11----11----11----11----11--10--9---|
 R-E-|--9-----9-----9-----9-----9-----9-----9---8---7---|
                                 I GOT YOUR FREE-DUMB !

 
 

 e-|--------------------------------------------------------------------|

 B-|--------------------------------------------------------------------|

 G-|--------------------------------------------------------------------|

 D-|--------------------------------------------------------------------|

 A-|--5p6h3p5---3-5-----3-5-6-5-3------5---3-5---3-5-----3-5-6-5-3------|

 E-|-------------------------------5-3-----------------------------5-3--|

      \_this ONE time________________/ \_this THREE times____________/

       C#5  D5
 e-|-------------------|
 B-|-------------------|
 G-|----6---7----------| and again...
 D-|----6---7----------|
 A-|----4---5----------|
 E-|-------------------|

 
 

 Play the chords 4 times before singing...

       F5         C5           G#5
      Truth                        
       F5         C5           G#5
      
       F5         C5           G#5
     
       F5         C5           G#5
    
       F5         C5           G#5
   
       F5         C5           G#5
  
       F5         C5           G#5

       F5         C5           G#5


       F5         C5           G#5
      Freedom,    ....
       F5         C5           G#5
      
       F5         C5           G#5
     
       F5         C5           G#5
    




     Play the following part 4 times

 B-G-|--------------------------------------------------|
 A-D-|--------------------------------------------------|
 S-A-|--------------------------------------------------|
 S-E-|--3--3--3--3--5--5--5--5--6--6--6--6--8--8--8--8--|
     |
     |  G5          A5          A#5         C5
 G-e-|---------------------------------------------------|
 U-B-|---------------------------------------------------|
 I-G-|---------------------------------------------------|
 T-D-|--5--5--5--5--7--7--7--7--8--8--8--8--10-10-10-10--|
 A-A-|--5--5--5--5--7--7--7--7--8--8--8--8--10-10-10-10--|
 R-E-|--3--3--3--3--5--5--5--5--6--6--6--6--8--8--8--8---|


 B-G-|--------------------------------------------------|
 A-D-|--------------11----------------------11----------|
 S-A-|-----------11----11----------------11----11-------|
 S-E-|--9-----9-----------9-----9-----9-----------9-----|
     |
     |  C#5                     (******* LYRICS *******)x4
 G-e-|--------------------------------------------------|
 U-B-|--------------------------------------------------|
 I-G-|--------------------------------------------------|
 T-D-|--11----11----11----11----11----11----11----11----|
 A-A-|--11----11----11----11----11----11----11----11----|
 R-E-|--9-----9-----9-----9-----9-----9-----9-----9-----|


 
 

      A5          C5    D5 G5 A5       D#5   D5   G5
 e-|--------------------------------------------------|
 B-|--------------------------------------------------|
 G-|--------------------------------------------------|
 D-|--------------5-----7--------------8--8--7--7-----|
 A-|--7--7--7--7--3-----5--5--7-----7--6--6--5--5--5--|
 E-|--5--5--5--5-----------3--5-----5--------------3--|

 Play this 4 times again screaming "FREEDOM !" each time you begin the
part,
 so you scream "FREEDOM !" 4 times... OK, that was easy !

 
 

 Just after the drums roll, play "F5 C5 G#5" 2 times, then :

       F5         C5           G#5
      Freedom,    ....
       F5         C5           G#5
      


 > the second guitar is now playing the same chords, but one octave low
:

       F5         C5           G#5
 e-|--------------------------------------------------|
 B-|--------------------------------------------------|
 G-|--------------5--5--5--5--------------------------|
 D-|--3--3--3--3--5--5--5--5--6--6--6--6--6--6--6--6--|
 A-|--3--3--3--3--3--3--3--3--6--6--6--6--6--6--6--6--|
 E-|--1--1--1--1--------------4--4--4--4--4--4--4--4--|
      Freedom,    free-   -dom,      we got your

       F5         C5           G#5
      Freedom,    ....
       F5         C5           G#5
      
       F5         C5           G#5
     

                    F5
                e-|-----|
                B-|-----|
  And finish    G-|-----|
  with...       D-|--3--|
                A-|--3--|
                E-|--1--|
        WE GOT FREE-DOM !


 ----------------------------------------------------------------------
 Ok, I think everything is correct, but if you find an error, send me a
 correction, alright ?
 ----------------------------------------------------------------------
 HELP ! HELP ! HELP ! HELP ! HELP ! HELP ! HELP ! HELP ! HELP ! HELP !

 I'm desesperatly looking for the following tabs :

 SUICIDAL TENDENCIES - "Scream Out" (btab/crd)
      SHOOTYZ GROOVE - "Lillypad"   (tab)
        UGLY KID JOE - "Would You Like To Be There" (tab)
         STONY SLEEP - "She Had Me" (tab/crd)
           SEPULTURA - "Jasco" (tab)

 If you have of one them please post it to me, or tell me where I could
 find it, it'd be great... THANX !

 ------------------------------------------------------------------------

 Official SUICIDAL TENDENCIES site               SAVE THE PENGUINS by
F@B
 ------------------------------------------------------------------------





Comments


Popular Suicidal Tendencies tabs & chords
Go Skate 1 Bass Tabs
Half Way Up My Head 1 Bass Tabs
Hippie Killers 1 Bass Tabs
Institutionalized Bass Tabs
Institutionalized 2 Bass Tabs
Cyco Vision 2 Tabs
Get Whacked Tabs
Half Way Up My Head Tabs
I Want More Tabs
You Can't Bring Me Down 1 Tabs


Song lyrics



↑ Back to top | Tablatures and chords are parodies/interpretations of the original songs. You may use it for private study, scholarship, research or language learning purposes only
© 2014 AZChords.com Contact us | Privacy policy | DMCA | Add/correct tabs | Request tabs | Top 50 tabs