>
 >
Emotion No. 13

Emotion No. 13 Guitar Tabs

Suicidal Tendencies - Emotion No. 13 chords, tabs, tablatures, lyrics

Guitar lessons | Add/correct | Request | Top 50 tabs Artists:  A B C D E F G H I J K L M N O P Q R S T U V W X Y Z 0-9

Emotion No. 13 Guitar Tabs – Suicidal Tendencies

CD, Sheet music, Poster

Do you like Emotion No. 13? Share with your friends now
Tabs
Band:  Suicidal Tendencies

Copyright (c)  (Epic) (1990)
Version 1.0 - (16/05/05)



.  - palm mute           /  - slide up to
\  - slide down to       ~  - vibrato
h  - hammer on           b  - Bend
p  - pull off            Suffixes for bend
t  - tap                 f  - full bend    h - half bend
ph - pinched harmonic    q  - quarter bend t - tap bend
*  - see comment         ^  - Hold bend    r release bend
x  - Stuccatto           ~  - vibrato bend
,  - slight palm mute    () - ghost note, sustained note
"  - tremolo note        <> - Trill

Tunning E A D G B E
 

 Intro

 Guitar 1

E-------------------|
B-8---\6------------|
G-7---\5------------|
D-5---\3----3----5--|
A-----------1----3--|
E-------------------|
 Guitar 2
E-------------------|
B-------------------|
G-------------------|
D-----------3----5--|
A-5---\3----1----3--|
E-3---\1------------|

 Main / Verse Riff

  Guitar 1
       [--PM--]    [--------PM-------]     [--PM--]   PM
E[------------------------------------------------------------|
B[------------------------------------------------------------|
G[------------------------------------------------------------|
D[-------------------------------------------------7-----8--\-|
A[-3/5---------3/5---------------------3/5---------5--/6-6--\-|
E[-1/3-3-3-3-3-1/3-3-3-3-3-3-3-3-3-3-3-1/3-3-3-3-3------------|
 [
 [Guitar
 [     [--PM--]    [--------PM-------]     [--PM--]   PM
E[------------------------------------------------------------|
B[------------------------------------------------------------|
G[-5/7-7-7-7-7-5/7-7-7-7-7-7-7-7-7-7-7-5/7-7-7-7-7------------|
D[-3/5-5-5-5-5-3/5-5-5-5-5-5-5-5-5-5-5-3/5-5-5-5-5-7-----8--\-|
A[-------------------------------------------------5--/6-6--\-|
E[------------------------------------------------------------|

  Guitar 1
       [--PM--]    [--------PM-------]     [--PM--]   PM
E[------------------------------------------------------------|
B[------------------------------------------------------------|
G[------------------------------------------------------------|
D[-------------------------------------------------------3----|
A[-3/5---------3/5---------------------3/5---------3--/5-1----|
E[-1/--3-3-3-3-1/3-3-3-3-3-3-3-3-3-3-3-3/3-3-3-3-3-1--/3------|
 [
 [Guitar
 [     [--PM--]    [--------PM-------]     [--PM--]   PM
E[------------------------------------------------------------|
B[------------------------------------------------------------|
G[-5/7-7-7-7-7-5/7-7-7-7-7-7-7-7-7-7-7-5/7-7-7-7-7------------|
D[-3/5-5-5-5-5-3/5-5-5-5-5-5-5-5-5-5-5-3/5-5-5-5-5-------3----|
A[-------------------------------------------------3--/5-1----|
E[-------------------------------------------------1--/3------| 

  Guitar 1
       [--PM--]    [--------PM-------]    
E[-------------------------------------|
B[-------------------------------------|
G[-------------------------------------|
D[-------------------------------------|
A[-3/5---------3/5---------------------|
E[-1/--3-3-3-3-1/3-3-3-3-3-3-3-3-3-3-3-|
 [
 [Guitar 2
 [     [--PM--]    [--------PM-------]    
E[-------------------------------------|
B[-------------------------------------|
G[-5/7-7-7-7-7-5/7-7-7-7-7-7-7-7-7-7-7-|
D[-3/5-5-5-5-5-3/5-5-5-5-5-5-5-5-5-5-5-|
A[-------------------------------------|
E[-------------------------------------| 
 [Guitar 3
 [   h [--PM--]  h [--------PM-------]    
E[-------------------------------------|
B[-6-8-8-8-8-8-6-8-8-8-8-8-8-8-8-8-8-8-|
G[-------------------------------------|
D[-------------------------------------|
A[-------------------------------------|
E[-------------------------------------| Rpt 4 X


E-----|
B-----|
G-----|
D-----|
A-12\-|
E-12\-|

 Chorus

 [--PM--]          h    h
E--------------------------------------------|
B--------------------------------------------|
G---------5--4--3--5p-3-5p-3-----------------|
D---------5--5--3--5p-3-5p-3-----------------|
A--------------------------------------------|
E-3-3-3-3--------------------1-0-1-0-1-0-1/--|

 [--PM--]         
E--------------------------------|
B--------------------------------|
G---------5--4--3--5-------------|
D---------5--5--3--5---8----(8)--|
A----------------------6----(6)--|
E-3-3-3-3------------3-----------|

 Rpt Verse
 Rpt Chorus
                               [---------PM---------]
E----------------------------------------------------------|
B----------------------------------------------------------|
G----------------------------------------------------5-----|
D-3----(3)-------------------------------------------5-----|
A-1----(1)----3----(3)----6--6\5---------3/5---------3-----|
E-------------1----(1)----4--4\3-3-3-3-3-1/3-3-3-3-3-------|

  [------------PM-------------]
E-------------------------------|
B-------------------------------|
G-------------------------------|
D-------------------------------|
A-3/5---------3/5---------------|
E-1/3-3-3-3-3-1/3-3-3-3-3-3-3-3-|

 Rpt

E--------------------------------|
B--------------------------------|
G--------------------------------|
D-5----(5)-----------------------|
A-3----(3)----3----(3)----6--6\--|
E-------------1----(1)----4--4\--|

  Guitar 1
E[-----------------|
B[-----------------|
G[-----------------|
D[-----------------|
A[-5-----------3---|
E[-3-----------1---|
 [
 [Guitar 2
 [   [-----PM-----]
E[-----------------|
B[-----------------|
G[-----------------|
D[---5-----3-------|
A[-----5-----3---3-|
E[-3-----6-----1---| Rpt 2 X

  Guitar 1
E[-----------------------------|
B[-----------------------------|
G[-----------------------------|
D[-----------------------------|
A[-5-----------3---12\---------|
E[-3-----------1---12\---------|
 [
 [Guitar 2
 [   [----------PM-----------]
E[-----------------------------|
B[-----------------------------|
G[-----------------------------|
D[---5-----3---------3---1-----|
A[-----5-----3---3-1---3-----5-|
E[-3-----6-----1-----------3---| 

    [-----------PM-------------]   [-----------PM-------------]
E--------------------------------------------------------------|
B--------------------------------------------------------------|
G--------------------------------------------------------------|
D---5-----3---------5-----3-----5----5-----3---------3---1-----|
A-----5-----3---3-----5-----3---3------5-----3---3-1---3-----5-|
E-3-----6-----1---3-----6-----1----3-----6-----1-----------3---|

 Rpt 6 X

E------------------------------|
B------------------------------|
G------------------------------|
D-3----(3)---------------------|
A-1----(1)----3----(3)---/6-6--|
E-------------1----(1)---/4-4--|

  [------------------------PM----------------------------]
E---------------------------------------------------------|
B---------------------------------------------------------|
G-------------------3-------------------------------------|
D---5-----3-------3-----5-----5-----3---------5-----3-----|
A-----5-----3---1-----3---5-----5-----3---3-----5-----3---|
E-3-----6-----1-------------3-----6-----1---3-----6-----1-|

 Rpt above riffs 3 X

E--------------------------------|
B--------------------------------|
G--------------------------------|
D-5----(5)-----------------------|
A-3----(3)----3----(3)---/6--6\--|
E-------------1----(1)---/4--4\--|

  [------------PM-------------]
E-------------------------------|
B-------------------------------|
G-------------------------------|
D-------------------------------|
A-3/5---------3/5---------------|
E-1/3-3-3-3-3-1/3-3-3-3-3-3-3-3-| Rpt 4 X

 Rpt Chorus Riff 4 X

                               [---------PM---------]
E----------------------------------------------------------|
B----------------------------------------------------------|
G----------------------------------------------------5-----|
D-3----(3)-------------------------------------------5-----|
A-1----(1)----3----(3)---/6--6\5---------3/5---------3-----|
E-------------1----(1)---/4--4\3-3-3-3-3-1/3-3-3-3-3-------| 

E------------------------------|
B------------------------------|
G------------------------------|
D-3----(3)---------------------|
A-1----(1)----3----(3)---/6-6--|
E-------------1----(1)---/4-4--|

  [------------------PM---------------------]
E--------------------------------------------|
B--------------------------------------------|
G---------------5-----3-----3-----1----------|
D---5-----3-------5-----3-----3-----1--------|
A-----5-----3-------6-----1-----4-------3-5--|
E-3-----6-----1-----------------------1---3--|



END





Comments


Popular Suicidal Tendencies tabs & chords
Institutionalized 1 Bass Tabs
Asleep At The Wheel Tabs
Cyco Vision 1 Tabs
Heaven Tabs
Hippie Killer Tabs
Institutionalized 1 Tabs
Institutionalized 4 Tabs
It's Not Easy Tabs
Pop Songs 1 Tabs
Suicides The Alternative Tabs


Song lyrics



↑ Back to top | Tablatures and chords are parodies/interpretations of the original songs. You may use it for private study, scholarship, research or language learning purposes only
© 2014 AZChords.com Contact us | Privacy policy | DMCA | Add/correct tabs | Request tabs | Top 50 tabs