» » »

Suicidal Tendencies, Choosing My Own Way Of Life Tabs (ver.1)

Artists:  A B C D E F G H I J K L M N O P Q R S T U V W X Y Z # 

Choosing My Own Way Of Life Tabs (ver.1)

Suicidal Tendencies Tabs
Rating:
0/5 (0 votes)
Choosing My Own Way Of Life lessons Tabs too difficult? Try these video lessons and learn fast
                
Tuning: 1/2 step down Eb

Intro
---------------------------------|
---------------------------------|
---------------------------------|
---------------------------------|
-2-2-2-2-2-2-2-2-2-2-2-2-2-2-2-2-|
-0-0-0-0-0-0-0-0-0-0-0-0-0-0-0-0-|
 . . . . . . . . . . . . . . . .

Riff 1
---------------------------------|
---------------------------------|
---------------------------------|
---------------------------------|
-----2-----5-----8\7---3-----3/5-|
-0-0-0-0-0-3-0-0-6\5-0-1---0-1/3-|
 . .   . .   . .     .     .

Riff 2
-----------------------------------------------------------------|
-----------------------------------------------------------------|
-----------------------------------------------------------------|
-------------------------5---8\7-----2-----5-----2-----8-----7---|
-0-0-0-0-0-0-0-0-0-0-0-0-3-0-6\5-0-0-0-0-0-3-0-0-0-0-0-6---0-5---|
 . . . . . . . . . . . .   .     . .   . .   . .   . .     .

Riff 3
-----------------------------------------------------------------|
-----------------------------------------------------------------|
-----------------------------------------------------------------|
-----9-----9-----9---9-------------------------------------------|
-----7-----7-----7---7---5---8\7-----2-----5-----2-----8-----7---|
-0-0---0-0---0-0---0---0-3-0-6\5-0-0-0-0-0-3-0-0-0-0-0-6---0-5---|
 . .   . .   . .   .   .   .     . .   . .   . .   . .     .

Riff 4
---------------------------------|
---------------------------------|
---------------------------------|
---------------------------------|
---------------------------------|
-0-0-0-0-0-0-0-0-0-0-0-0-0-0-0-0-|
 . . . . . . . . . . . . . . . .

Riff 5
---------------------------------|
---------------------------------|
---------------------------------|
-----4-----5-----7---------------|
-0-0-2-0-0-3-0-0-5-0-0-8--7--5---|
-----------------------6--5--3---|
 . .   . .   . .   . .

Riff 6
---------------------------------|
---------------------------------|
---------------------------------|
-----4-----5---------------------|
-0-0-2-0-0-3---0-3-2-0-2-----3---|
-------------------------3-2-1---|
 . .   . .     . . . . . . .

End Riff
---------------------------------|
---------------------------------|
---------------------------------|
---------------------------------|
-0-0-0-0-0-0-0-0-3-2-0-2-----3-2-|
-------------------------3-2-1-0-|
 . . . . . . . . . . . . . .


Heres how it flows...
Intro x2
Riff 1 x4
Riff 2 x2
Riff 3 x1
Riff 2 x1
Riff 4 x1
Riff 1 x4
Riff 2 x2
Riff 3 x1
Riff 2 x1
Riff 5 x3
Riff 6 x1
Riff 1 x4
Riff 2 x2
Riff 3 x1
Riff 2 x1
Riff 4 x1
Riff 5 x3
Riff 6 x1
Riff 1 x4
Riff 2 x2
Riff 3 x1
Riff 2 x1
Riff 5 x3
Riff 6 x1
Riff 1 x8
End Riff x1
            
Submit corrections

comments powered by Disqus
↑ Back to top | Suicidal Tendencies Tabs for Choosing My Own Way Of Life. Lyrics for acoustic guitar and electric guitar. Tablatures and chords are parodies/interpretations of the original songs. You may use it for private study, scholarship, research or language learning purposes only