» » »

Can't Stop Tabs (ver.1)

Artists:  A B C D E F G H I J K L M N O P Q R S T U V W X Y Z # 

Can't Stop Tabs (ver.1)

Suicidal Tendencies
Rating:
5/5 (1 vote)

Hard to play? Try these video lessons and learn fast.
                                         SUICIDAL TENDENCIES  CAN'T STOP
                         From the Album       THE ART OF REBELLION
                         Copyright 1992       EPIC/SONY
                 
                            Version 1.0 - SEPTEMBER 1999
For Questions, Comments, Newest Version, or Corrections contact
Check Out 's Web Page, With More Transcriptions On It:
               
join the death/black tab emailing list by emailing 
.  - palm mute                    /  - slide up to
\  - slide down to                ~  - vibrato             
h  - hammer on                    b  - bend 
p  - pull off                          Suffixes for bend    
ph - pinch harmonic                        f - full bend    h - half bend
*  - see comment                           r - release      t - tap bend
X  - percussion mute                       ~ - vibrato bend
@  - slight palm mute             () - ghost note, sustained note
"  - tremolo pick until next note
 Standard Tuning
 Intro
|--------------------------------------------------------0-----|
|-----------------------------------------------0-----------0--|
|----------------0--------0------------------2-----2-----------|
|----4-----4--------4---------------2-----2-----------2--------|
|-2-----2-----2--------2-----2---0-----0-----------------------|
|--------------------------------------------------------------|
|--------------------------------------------------------0-----|
|-----------------------------------------------0-----------0--|
|----------------0--------0------------------2-----2-----------|
|----0-----0--0-----0--------0------2-----2-----------2--------|
|----------------------5---------0-----0-----------------------|
|-3-----3------------------------------------------------------|

|--------------------------------------------------------0-----|
|-----------------------------------------------0-----------0--|
|----------------0--------0------------------2-----2-----------|
|----4-----4--------4---------------2-----2-----------2--------|
|-2-----2-----2--------2-----2---0-----0-----------------------|
|--------------------------------------------------------------|
|--------------------------------------------------------0-2---|
|-----------------------------------------------0------------0-|
|----------------0--------0------------------2-----2-----------|
|----0-----0--0-----0--------0------2-----2-----------2--------|
|----------------------5---------0-----0-----------------------|
|-3-----3------------------------------------------------------|

|--------------------------------------------------------0-----|
|-----------------------------------------------0-----------0--|
|----------------0--------0------------------2-----2-----------|
|----4-----4--------4---------------2-----2-----------2--------|
|-2-----2-----2--------2-----2---0-----0-----------------------|
|--------------------------------------------------------------|
|--------------------------------------------------------0-----|
|-----------------------------------------------0-----------0--|
|----------------0--------0------------------2-----2-----------|
|----0-----0--0-----0--------0------2-----2-----------2--------|
|----------------------5---------0-----0-----------------------|
|-3-----3------------------------------------------------------|

|--------------------------------------------------------0-----|
|-----------------------------------------------0-----------0--|
|----------------0--------0------------------2-----2-----------|
|----4-----4--------4---------------2-----2-----------2--------|
|-2-----2-----2--------2-----2---0-----0-----------------------|
|--------------------------------------------------------------|
|--------------------------------------------0--|
|--------------------------------------------0--|
|----------------0--------0------------------2--|
|----0-----0--0-----0--------0------2-----2--2--|
|----------------------5---------0-----0-----0--|
|-3-----3---------------------------------------|

 RIFF 2                          PLAY 4 TIMES
|---------------------------------------------|
|---------------------------------------------|
|---------------------------------------------|
|-4--------4--------3--------3-4----3-4-------|
|-2-222222---222222---222222-----22-----22-0--|
|---------------------------------------------|
    ......   ......   ......     ..     .. 

 PLAY RIFF 2  2 TIMES W/FILL 1
 PLAY RIFF 2  1 TIME  W/FILL 2
 PLAY RIFF 2  1 TIME  W/FILL 3
 FILL 1
|-----------------|
|-----------------|GTR 
|--------4------3-| 2
|-----------------|
|-2---------------|
|-----------------|
 FILL 2
|-----------------|
|-----------------|GTR
|--------7------6-| 2
|-----------------|
|-5---------------|
|-----------------|
 FILL 3
|-----------------|
|-------10------9-|GTR
|-----------------| 2
|-7---------------|
|-----------------|
|-----------------|
 
 RIFF 3
|------------------------------------------------------|
|------------------------------------------------------|
|------------------------------------------------------|
|-7-7-9/10---7--7-7--9-10----7-7-7--9/10--7--7-7--9-10-|
|-5-5-7/-8---5--5-5--7--8----5-5-5--7/-8--5--5-5--7--8-|
|------------------------------------------------------|
 RIFF 4
|-----------------------------------------------------|
|-----------------------------------------------------|
|-----------------------------------------------------|
|-7-7-7-7-9/10---77-7-7-9-10---7-7-7-7--9/10--7--10---|
|-5-5-5-5-7/-8---55-5-5-7--8---5-5-5-5--7/-8--5---8-9-|
|---------------------------------------------------7-|
  . . . .           . .        . . . .   

 PLAY RIFF 2  4 TIMES
 PLAY RIFF 3  1 TIME
 RIFF 4.a
|-----------------------------------------------|
|-----------------------------------------------|
|-----------------------------------------------|
|-7-7-7-7-9/10---77-7-7-9-10---7-7-7-7--9/10--7-|
|-5-5-5-5-7/-8---55-5-5-7--8---5-5-5-5--7/-8--5-|
|-----------------------------------------------|
  . . . .           . .        . . . .   

 RIFF 5
|------------------------------------------|
|------------------------------------------|
|------------------------------------------|
|--10---9---7--5------------------------2--|
|---8---7---5--3--5---5555555555555555--0--|
|-----------------3---3333333333333333-----|
                      ................ 
 
 RIFF 6                              PLAY 4 TIMES
|------------------------------------------------|
|------------------------------------------------|
|------------------------------------------------|
|--7/9-10-------7/9-10--------7/9-10-------------|
|--5/7--8-------5/7--8--------5/7--8-------------|
|----------000----------000-----------000000000--|
           ...          ...           .........

 RIFF 7       PLAY 4 TIMES
|-------------------------|
|-------------------------|
|-------------------------|
|-------------------------|
|-5\2---5----5--5---5---5-|
|-3\0-0-3-00-3--3-0-3-0-3-|
      .   ..      .   . 
 PLAY RIFF 2  2 TIMES
 PLAY RIFF 2  4 TIMES W/FILL 1
 PLAY RIFF 2  1 TIME  W/FILL 2
 PLAY RIFF 2  1 TIME  W/FILL 3
 PLAY RIFF 3  1 TIME
 PLAY RIFF 4  1 TIME
 PLAY RIFF 2  4 TIMES W/FILL 4 2ND TIME

 FILL 4     
|--------------------------------|
|--15"--17"--18"--17"--15"-------|
|--------------------------16~~~-|
|--------------------------------|
|--------------------------------|
|--------------------------------|
 PLAY RIFF 3   1 TIME
 PLAY RIFF 4.a 1 TIME
 PLAY RIFF 5   1 TIME
 PLAY RIFF 6   4 TIMES
 PLAY RIFF 7   4 TIMES

 Outro
|--------------------------------------------------------0-----|
|-----------------------------------------------0-----------0--|
|----------------0--------0------------------2-----2-----------|
|----4-----4--------4---------------2-----2-----------2--------|
|-2-----2-----2--------2-----2---0-----0-----------------------|
|--------------------------------------------------------------|
|--------------------------------------------0--|
|--------------------------------------------0--|
|----------------0--------0------------------2--|
|----0-----0--0-----0--------0------2-----2--2--|
|----------------------5---------0-----0-----0--|
|-3-----3---------------------------------------|
            
Hard to play? Try these video lessons and learn fast. | Correct




comments powered by Disqus
↑ Back to top | Tablatures and chords are parodies/interpretations of the original songs. You may use it for private study, scholarship, research or language learning purposes only