» » »

Suicidal Tendencies, Ain't Gonna Take It Bass tabs (ver.2)

Artists:  A B C D E F G H I J K L M N O P Q R S T U V W X Y Z # 

Ain't Gonna Take It Bass tabs (ver.2)

Suicidal Tendencies Tabs
Rating:
0/5 (0 votes)
Ain't Gonna Take It lessons Tabs too difficult? Try these video lessons and learn fast
                There might be some minor mistakes, but i went more in depth than the other tab, so here 
is.  I basically Improvised the slap part at the end, but the rest sounds right to me.

Intro
G -------------------------------------------------------------------|
D -------------------------------------------------------------------|
A -------------------------------------------------------------------|
E -244-244-2445--244-244-2445--244-244-2447-244-244-2445-244-244-244-|

Verse- wait 4 measures until bass comes in (After bass comes in verse plays 8x)
G ------------------------------------------------------|
D ------------------------------------------------------|
A -555-2-222-444----------------------------------------|
E ---------------4-444----------------------------------|

Chorus
G ------------------------------------------------------|
D ------------------------------------------------------|
A ------------------------------------------------------|
E -244-244-2445-244-244-2447-244-244-2445-244-244-2445--|

Verse X8
Chorus
Verse X8

Slap Part (somewhat improvised) X4
G -9---x--4---x-----------------------------------------|
D ------------------------------------------------------|
A ---5------2-------------------------------------------|
E ------------------------------------------------------|

verse X4

Outro
G ------------------------------------------------------------|
D ------------------------------------------------------------|
A ------------------------------------------------------------|
E -4-4-4-4----4-----------------------------------------------|
            
Submit corrections

comments powered by Disqus
↑ Back to top | Suicidal Tendencies Bass for Ain't Gonna Take It. Lyrics for acoustic guitar and electric guitar. Tablatures and chords are parodies/interpretations of the original songs. You may use it for private study, scholarship, research or language learning purposes only