» » »

Sugarfree, Makita Kang Muli Tabs (ver.1)

Artists:  A B C D E F G H I J K L M N O P Q R S T U V W X Y Z # 

Makita Kang Muli Tabs (ver.1)

Sugarfree Tabs
 Rating:
3.8/5 (5 votes)
Makita Kang Muli lessons Tabs too difficult? Try these video lessons and learn fast
                MUSTA ! ! ! !  ko nlng ung mga kabandm8 ko d2 sa naga
HYBRID BAND:

Intro:
      G        C         D
e|-----------------------3------|
B|-----------------------2------|
G|--4--4--4---5-5-5------3------|
D|--5--5--5---5-5-5-------------| ( 2x )
A|--5--5--5---3-3-3-------------|
E|--3--3--3---------------------|

Verse:

    Em    D/F#       G           Am
e|--0-0---0-0------------------------------------------|
B|--3-3---3-3------------------------------------------|
G|--3-3---2-2------4-4-4-4------9-9-9-9----------------|
D|--2-2---0-0------5-5-5-5------9-9-9-9----------------|
A|--2-2---0-0------5-5-5-5------7-7-7-7----------------|
E|--0-0---2-2------3-3-3-3-----------------------------|
     Em     D/F#     G         Am          C        Am
e|--0-0-0---0-0-------------------------------------------|
B|--3-3-3---3-3-------------------------------------------|
G|--3-3-3---3-3----4-4-4-4---9-9-9-9----5-5-5-5----9-9-9--|
D|--2-2-2---2-2----5-5-5-5---9-9-9-9----5-5-5-5----9-9-9--|
A|--2-2-2---2-2----5-5-5-5---7-7-7-7----3-3-3-3----7-7-7--|
E|--0-0-0---0-0----3-3-3-3--------------------------------|

Pre-chorus:
      Am         Bm               Am                 C         D
e|-----------------------------------------|    ------------3-3-3-3---|
B|-1-1-1-1-----3-3-3-3---------1-1-1-1-----|    ------------2-2-2-2---|
G|-2-2-2-2-----4-4-4-4---------2-2-2-2-----| 2x --5-5-5-5---3-3-3-3---|
D|-2-2-2-2-----4-4-4-4---------2-2-2-2-----|    --5-5-5-5-------------|
A|-------------2-2-2-2---------------------|    --3-3-3-3-------------|
E|-----------------------------------------|    ----------------------|

Chorus:
       G           Bm          C
e|------------------------------------------------------------|
B|---------------3-3-3-3-3------------------------------------|
G|--4-4-4-4-4----4-4-4-4-4---5-5-5-5-5------------------------|
D|--5-5-5-5-5----4-4-4-4-4---5-5-5-5-5------------------------|
A|--5-5-5-5-5----2-2-2-2-2---3-3-3-3-3------------------------|
E|--3-3-3-3-3-------------------------------------------------|

e|-------------0-0---0-0---------------------------------|
B|---7-7-------3-3---3-3---------------------------------|
G|---7-7-------0-0---2-2-----4-4-4-4--------5-5-5--------|
D|---7-7-------2-2---0-0-----5-5-5-5--------5-5-5--------|
A|---5-5-------2-2---0-0-----5-5-5-5--------3-3-3--------|
E|---5-5-------0-0---2-2-----3-3-3-3---------------------|
            
Submit corrections

comments powered by Disqus
↑ Back to top | Sugarfree Tabs for Makita Kang Muli. Lyrics for acoustic guitar and electric guitar. Tablatures and chords are parodies/interpretations of the original songs. You may use it for private study, scholarship, research or language learning purposes only