» » »

Birthday Bass tabs (ver.1)

Artists:  A B C D E F G H I J K L M N O P Q R S T U V W X Y Z # 

Birthday Bass tabs (ver.1)

Sugarcubes
Rating:
0/5 (0 votes)

Hard to play? Try these video lessons and learn fast.
                The Sugarcubes - Birthday (1988)
Tuning: Standard E

The main bass parts for this wonderful song by Björk and friends! The bassist plays 
a random variation roughly every 4th time, but I'll leave that up to you to improvise! 
Also, listen to the song to learn the full structure.

Intro (play this x4):
G|-----||---------------------|---------------------||
D|-----||*-----------------0--|--3-----------------*||
A|---0-||*-3------------------|------------------0-*||
E|-----||---------------------|---------------------||

Verse (play this 8x each verse, except the third):
G|-----||----------------------|---------------------||
D|-----||*----------5---5---7--|--0-----------------*||
A|---0-||*-3-------------------|------------------0-*||
G|-----||----------------------|---------------------||

Chorus (play this 4x each chorus):
G|-----||----------------------|---------------------||
D|-----||*----------5---5---5--|--3-----------------*||
A|---0-||*-3-------------------|------------------0-*||
G|-----||----------------------|---------------------||

For the outro, play the verse part.
That's it, hope you'll enjoy jamming to this!
            
Hard to play? Try these video lessons and learn fast. | Correct




comments powered by Disqus
↑ Back to top | Tablatures and chords are parodies/interpretations of the original songs. You may use it for private study, scholarship, research or language learning purposes only