» » »

The Act We Act Tabs (ver.1)

Artists:  A B C D E F G H I J K L M N O P Q R S T U V W X Y Z # 

The Act We Act Tabs (ver.1)

Sugar
Rating:
5/5 (1 vote)

Hard to play? Try these video lessons and learn fast.
                intro:

e-----------------------------------------------------------|
b-----------------------------------------------------------|
g-----------------------------------------------------------|
d-----------------------------------------------------------|
a--233333333333333------------------------------------------|
e--011111111111111------------------------------------------|

riff bit after six times playing intro:

e-----------------------------------------------------------|
b--1h0-----1------------------------------------------------|
g-----2-0h2-2-----------------------------------------------|
d-----------------------------------------------------------|
a-----------------------------------------------------------|
e-----------------------------------------------------------|

verse: twice.

e--------------------------0--0------------------------------------------|
b---------------------------0--0------------------5555555554444444-------|
g-----------------222222224--4--4-----------------5555555554444444-------|
d-----------------222222224--4--4-----------------3333333322222222-------|
a-3333333332222222--------2--2--2-3333333332222222-----------------------|
e-1111111110000000----------------1111111110000000-----------------------|

chorus: four times

e--33333333-------------------------------------------------|
b--33333333-------------------------------------------------|
g--00000000222222224444444455555555-------------------------|
d--00000000222222224444444455555555-------------------------|
a--22222222--------2222222233333333-------------------------|
e--33333333-------------------------------------------------|

but on the fourth time its:

e--33333333---------0--0--0--0--0---------------------------|
b--33333333---------0--0--0--0--0---------------------------|
g--0000000022222222444444444444444--------------------------|
d--00000000222222224-44-44-44-44-4--------------------------|
a--22222222--------2-22-22-22-22-2--------------------------|
e--33333333-------------------------------------------------|

solo:

e-----------------------------------------------------------|
b-------------6b--------------------------------------------|
g-------------------6653-------------5-5s6s5----------------|
d-15s3-3-3-333----33----6-----------------------------------|
a---------------44---------5565668-33-----------------------|
e------------------------66---------------------------------|

e-------------------------------------------------------------|
b-------------66b---------------------------------------------|
g-------------------6653-----------------888875---------------|
d-15s3-3-3--------33----6--------------77------8--------------|
a---------------44---------555h6h5h6h8------------------------|
e------------------------66-----------------------------------|

e-------------------------------------68686868686868686868686868-|
b-------------------------------------68686868686868686868686868-|
g--5-5-5-555b5----6s3-------7------------------------------------|
d---3-3-3--------3------------555b65-----------------------------|
a--------------44--------556-8------8----------------------------|
e--------------------6666----------------------------------------|

think thats right! took me ages to work out. Corrections welcome.

order
intro: 8 times
verse: twice
chorus: 4 times
intro: 4 times
verse: twice
chorus: 4 times
solo once!
chorus 12 times
intro 4 times
            
Hard to play? Try these video lessons and learn fast. | Correct




comments powered by Disqus
↑ Back to top | Tablatures and chords are parodies/interpretations of the original songs. You may use it for private study, scholarship, research or language learning purposes only