>
 >
If I Can't Change Your Mind 1

If I Can't Change Your Mind 1 Guitar Tabs

Sugar - If I Can't Change Your Mind 1 chords, tabs, tablatures, lyrics

Guitar lessons | Add/correct | Request | Top 50 tabs Artists:  A B C D E F G H I J K L M N O P Q R S T U V W X Y Z 0-9

If I Can't Change Your Mind 1 Guitar Tabs – Sugar

CD, Sheet music, Poster

Do you like If I Can't Change Your Mind 1? Share with your friends now
ChordsTabsTabs v2
'If I Can't Change Your Mind'-  Sugar


I've seen other transcriptions using a capo but this is how I play it.
It's sounds the best on a twelve string but still cool on a 6.
The rhythm isn't exactly right but the chords are good.

(Use your thumb for the F chords.)


Intro

    F    Fsus2  F       Fsus4   F  Fsus2  F     Fsus2  F  Csus4  C  Csus2  C
e:--1--1---1----1--1----1--1----1---1-----1--1---1-----1---0-----0---0-----0|
B:--1--1---1----1--1----1--1----1---1-----1--1---1-----1---1-----1---1-----1|
G:--2--2---0----2--2----3--3----2---0-----2--2---0-----2---0-----0---0-----0|
D:--3--3---3----3--3----3--3----3---3-----3--3---3-----3---3-----2---0-----2|
A:---------------------------------------------------------3-----3---3-----3|
E:--1--1---1----1--1----1--1----1---1-----1--1---1-----1--------------------|


Then at the change...    and into the chorus

    F    Fsus2  F       Fsus4   F  Fsus2  F     Fsus2  F   Dm    Am
e:--1--1---1----1--1----1--1----1---1-----1--1---1-----1---1--1--0--0-------|
B:--1--1---1----1--1----1--1----1---1-----1--1---1-----1---3--3--1--1-------|
G:--2--2---0----2--2----3--3----2---0-----2--2---0-----2---2--2--2--2-------|
D:--3--3---3----3--3----3--3----3---3-----3--3---3-----3---0--0--2--2-------|
A:---------------------------------------------------------------0--0-------|
E:--1--1---1----1--1----1--1----1---1-----1--1---1-----1--------------------|
    

    Bb         Csus4 C Csus2 C   F  Am7 Dm Am  Bb         Csus4 C Csus2 C
e:--------------0----0---0---0---1--0---1--0---------------0----0---0---0---|
B:--3--3--3--3--1----1---1---1---1--1---3--1---3--3--3--3--1----1---1---1---|
G:--3--3--3--3--0----0---0---0---2--0---2--2---3--3--3--3--0----0---0---0---|
D:--3--3--3--3--3----2---0---2---3--3---0--2---3--3--3--3--3----2---0---2---|
A:--1--1--1--1--3----3---3---3-------------0---1--1--1--1--3----3---3---3---|
E:--------------------------------------------------------------------------|


Bridge

   Am         Bb          Dm          Eb          F    Fsus4  F      Fsus2 F
e:-0--0--0--0-------------1--1--1--1--3--3--3--3--1--1--1--1--1--1--1--1---1|
B:-1--1--1--1-3--3--3--3--3--3--3--3--4--4--4--4--1--1--1--1--1--1--1--1---1|
G:-2--2--2--2-3--3--3--3--2--2--2--2--3--3--3--3--2--2--3--3--2--2--2--0h2-2|
D:-2--2--2--2-3--3--3--3--0--0--0--0--5--5--5--5--3--3--3--3--3--3--3--3---3|
A:-0--0--0--0-1--1--1--1----------------------------------------------------|
E:--------------------------------------------------------------------------|

   Am         Bb          Dm                      Eb         
e:-0--0--0--0-------------1--1--1--1--1--1--1--1--3--3--3--3--3--3--3--3--|
B:-1--1--1--1-3--3--3--3--3--3--3--3--3--3--3--3--4--4--4--4--4--4--4--4--|
G:-2--2--2--2-3--3--3--3--2--2--2--2--2--2--2--2--3--3--3--3--3--3--3--3--|
D:-2--2--2--2-3--3--3--3--0--0--0--0--0--0--0--0--5--5--5--5--5--5--5--5--|
A:-0--0--0--0-1--1--1--1--------------------------------------------------|
E:------------------------------------------------------------------------|
  [.....play 2x.........]

   Gm7                     Bb        Csus4 C Csus2 C
e:-3--3--3--3--3--3--3--3--------------0---0---0---0--|
B:-3--3--3--3--3--3--3--3--3--3--3--3--1---1---1---1--|
G:-4--4--4--4--4--4--4--4--3--3--3--3--0---0---0---0--|
D:-3--3--3--3--3--3--3--3--3--3--3--3--3---2---0---2--|
A:-5--5--5--5--5--5--5--5--1--1--1--1--3---3---3---3--|
E:-3--3--3--3--3--3--3--3-----------------------------|

The solo is in F and the run at the end is just going up and down the scale
with a little change near the end.

Dave





--

 #####    ####   #        #   #  #    #   ####   #####   #####   #    #
 #    #  #    #  #         # #   ##  ##  #    #  #    #  #    #  #    #
 #    #  #    #  #          #    # ## #  #    #  #    #  #    #  ######





Comments


Popular Sugar tabs & chords
Good Idea Bass Tabs
Gift Chords
Hoover Dam 1 Chords
If I Can't Change Your Mind Chords
Panama City Motel Chords
Helpless Tabs
My Favorite Thing Tabs
Panama City Motel Tabs
Company Book Ukulele
The Act We Act Ukulele


Song lyrics



↑ Back to top | Tablatures and chords are parodies/interpretations of the original songs. You may use it for private study, scholarship, research or language learning purposes only
© 2014 AZChords.com Contact us | Privacy policy | DMCA | Add/correct tabs | Request tabs | Top 50 tabs