» » »

Fortune Teller Tabs (ver.1)

Artists:  A B C D E F G H I J K L M N O P Q R S T U V W X Y Z # 

Fortune Teller Tabs (ver.1)

Sugar
Rating:
5/5 (1 vote)

Tabs too difficult? Try these video lessons and learn fast.
                -------------------------------------------------------------------------------
-------------------------------------------------------------------------------

Tuning: Standard - Capo 2nd Fret. All Notes relative to capo

Intro (x4)
e|---------------------------------------------------------------------------|
B|---------------------------------------------------------------------------|
G|--7-9-------------7/6------------------------------------------------------|
D|-------9-7-9-99-------9-7-9------------------------------------------------|
A|---------------------------------------------------------------------------|
E|---------------------------------------------------------------------------|

Verse (slightly Palm muted)
   B   Asus2        E     B    Asus2           E
e|------------------0--------------------------0----------------------------|
B|----0----0--------0--------0----0------------0----------------------------|
G|-44--44-----------1-----44---44--------------1----------------------------|
D|-44--22-----------2-----44---22--------------2----------------------------|
A|-22--00-----------2-----22---00--------------2----------------------------|
E|-----------3-2-0--0------------------3-2-0---0----------------------------|

     G    A7sus4     Csus2 Dsus4
e|--33333--333--0-2--33333-3333-0-2------------------------------------------|
B|--33333--333--3-3--33333-3333-3-3------------------------------------------|
G|--00000--222--0-0--00000-2222-2-2------------------------------------------|
D|--00000--222--0-0--22222-0000-0-0------------------------------------------|
A|--22222--000-------33333---------------------------------------------------|
E|--33333--------------------------------------------------------------------|

   B  Asus2         E     B    Asus2           E
e|------------------0--------------------------0----------------------------|
B|----0----0--------0--------0----0------------0----------------------------|
G|-44--44-----------1-----44---44--------------1----------------------------|
D|-44--22-----------2-----44---22--------------2----------------------------|
A|-22--00-----------2-----22---00--------------2----------------------------|
E|-----------3-2-0--0------------------3-2-0---0----------------------------|

     G    A7sus4     Csus2 Dsus4
e|--33333--333--0-2--33333-3333-0-2------------------------------------------|
B|--33333--333--3-3--33333-3333-3-3------------------------------------------|
G|--00000--222--0-0--00000-2222-2-2------------------------------------------|
D|--00000--222--0-0--22222-0000-0-0------------------------------------------|
A|--22222--000-------33333---------------------------------------------------|
E|--33333--------------------------------------------------------------------|

     G    A7sus4     Csus2 Dsus4
e|--33333--333--0-2--33333-333333----------------------------------------|
B|--33333--333--3-3--33333-333333----------------------------------------|
G|--00000--222--0-0--00000-222222----------------------------------------|
D|--00000--222--0-0--22222-000000----------------------------------------|
A|--22222--000-------33333-----------------------------------------------|
E|--33333----------------------------------------------------------------|

Chorus (first 2 chords palm muted)
     C#5      D5   F# Eno3  B  Asus2
e|--------------------------00-00--------------------------00----------------|
B|-----------------------00-00-00-----------------------00-00-00-------------|
G|--66666666-77777777----44-44-44--66666666-77777777----44-44-44-------------|
D|--66666666-77777777-44-22-44-22--66666666-77777777-44-22-44-22-------------|
A|--44444444-55555555-44-22-22-00--44444444-55555555-44-22-22-00-------------|
E|--------------------22-00--------------------------22-00-------------------|

 Fill on "Te-ller"
G|---4br2v--

e|------------------------------------------------------2p0------00-2p0------|
B|--------------------------------------------------------0---00-00------0---|
G|--44444444-66666666-44-44-44-----444444444-666666666--------44-44----4-4---|
D|--44444444-66666666-44-22-22-44--444444444-666666666------4-44-44----4-4---|
A|--22222222-44444444-22-00-22-44--222222222-444444444-----------------------|
E|--------------------------00-22--------------------------------------------|
                                                       ^Fill by 2nd guitar, 1st keeps 
the same.

Then back to verse and chorus

Bridge. Chords: Eno3 Asus2 B Asus2 (x4)
e|-11-------11---------------------------------------------------------------|
B|-14b16r14-12---------------------------------------------------------------|
G|---------------------------------------------------------------------------|
D|---------------------------------------------------------------------------|
A|---------------------------------------------------------------------------|
E|---------------------------------------------------------------------------|

    "Oh no!"
e|-----------------------------|---------------------------------------------|
B|-----------------------------|---------------------------------------------|
G|----------------6-9-6--------|---------------------------------------------|
D|------------99-9------9------|------------------99-------------------------|
A|--99119119--77---------------|--99119119--1111--77-------------------------|
E|--779-7-97-------------------|--779-7-97---9-9-----------------------------|
x3

Then verse again and chorus again.
Then repeat the chorus first line for 4 times only and then
the outro is consisted of the teller part for about 8 or so times.
End on Asus2.
************************************

| /   slide up
| \   slide down
| h   hammer-on
| p   pull-off
| ~   vibrato
| +   harmonic
| x   Mute note
| b   Bend
| pb  Pre-bend
| br  Bend release
| pbr Pre-bend release
| brb Bend release bend

************************************
            
Tabs too difficult? Try these video lessons and learn fast.


comments powered by Disqus
↑ Back to top | Tablatures and chords are parodies/interpretations of the original songs. You may use it for private study, scholarship, research or language learning purposes only